ISO-10303-21;
HEADER;
FILE_DESCRIPTION (( 'STEP AP203' ),
    '1' );
FILE_NAME ('24957-E0W.STEP',
    '2012-10-01T14:07:05',
    ( 'Admin' ),
    ( 'Thorlabs, Inc.' ),
    'SwSTEP 2.0',
    'SolidWorks 2011',
    '' );
FILE_SCHEMA (( 'CONFIG_CONTROL_DESIGN' ));
ENDSEC;

DATA;
#1 = ORIENTED_EDGE ( 'NONE', *, *, #6, .F. ) ;
#2 = ORIENTED_EDGE ( 'NONE', *, *, #210, .T. ) ;
#3 = VERTEX_POINT ( 'NONE', #212 ) ;
#4 = ORIENTED_EDGE ( 'NONE', *, *, #28, .T. ) ;
#5 = ORIENTED_EDGE ( 'NONE', *, *, #17, .F. ) ;
#6 = EDGE_CURVE ( 'NONE', #30, #43, #93, .T. ) ;
#7 = EDGE_CURVE ( 'NONE', #63, #211, #215, .T. ) ;
#8 = EDGE_LOOP ( 'NONE', ( #5, #27, #10 ) ) ;
#9 = EDGE_CURVE ( 'NONE', #211, #3, #90, .T. ) ;
#10 = ORIENTED_EDGE ( 'NONE', *, *, #9, .T. ) ;
#11 = ORIENTED_EDGE ( 'NONE', *, *, #9, .F. ) ;
#12 = ORIENTED_EDGE ( 'NONE', *, *, #17, .T. ) ;
#13 = ADVANCED_FACE ( 'NONE', ( #89 ), #214, .T. ) ;
#14 = ORIENTED_EDGE ( 'NONE', *, *, #207, .F. ) ;
#15 = ORIENTED_EDGE ( 'NONE', *, *, #53, .F. ) ;
#16 = ORIENTED_EDGE ( 'NONE', *, *, #28, .F. ) ;
#17 = EDGE_CURVE ( 'NONE', #63, #3, #185, .T. ) ;
#18 = EDGE_LOOP ( 'NONE', ( #22, #96, #54, #15 ) ) ;
#19 = ADVANCED_FACE ( 'NONE', ( #200 ), #201, .F. ) ;
#20 = ADVANCED_FACE ( 'NONE', ( #187 ), #51, .T. ) ;
#21 = ORIENTED_EDGE ( 'NONE', *, *, #197, .F. ) ;
#22 = ORIENTED_EDGE ( 'NONE', *, *, #47, .F. ) ;
#23 = ORIENTED_EDGE ( 'NONE', *, *, #55, .F. ) ;
#24 = CLOSED_SHELL ( 'NONE', ( #193, #44, #35, #29, #13, #19, #20, #85, #98 ) ) ;
#25 = ORIENTED_EDGE ( 'NONE', *, *, #207, .T. ) ;
#26 = ORIENTED_EDGE ( 'NONE', *, *, #45, .F. ) ;
#27 = ORIENTED_EDGE ( 'NONE', *, *, #7, .T. ) ;
#28 = EDGE_CURVE ( 'NONE', #36, #38, #205, .T. ) ;
#29 = ADVANCED_FACE ( 'NONE', ( #112 ), #173, .T. ) ;
#30 = VERTEX_POINT ( 'NONE', #168 ) ;
#31 = EDGE_CURVE ( 'NONE', #30, #36, #172, .T. ) ;
#32 = ORIENTED_EDGE ( 'NONE', *, *, #31, .T. ) ;
#33 = EDGE_CURVE ( 'NONE', #43, #67, #159, .T. ) ;
#34 = ORIENTED_EDGE ( 'NONE', *, *, #42, .F. ) ;
#35 = ADVANCED_FACE ( 'NONE', ( #167 ), #166, .T. ) ;
#36 = VERTEX_POINT ( 'NONE', #160 ) ;
#37 = EDGE_LOOP ( 'NONE', ( #32, #4, #34, #1 ) ) ;
#38 = VERTEX_POINT ( 'NONE', #153 ) ;
#39 = EDGE_LOOP ( 'NONE', ( #41, #46, #40, #48 ) ) ;
#40 = ORIENTED_EDGE ( 'NONE', *, *, #196, .F. ) ;
#41 = ORIENTED_EDGE ( 'NONE', *, *, #42, .T. ) ;
#42 = EDGE_CURVE ( 'NONE', #43, #38, #146, .T. ) ;
#43 = VERTEX_POINT ( 'NONE', #149 ) ;
#44 = ADVANCED_FACE ( 'NONE', ( #147 ), #152, .T. ) ;
#45 = EDGE_CURVE ( 'NONE', #63, #194, #138, .T. ) ;
#46 = ORIENTED_EDGE ( 'NONE', *, *, #47, .T. ) ;
#47 = EDGE_CURVE ( 'NONE', #38, #194, #137, .T. ) ;
#48 = ORIENTED_EDGE ( 'NONE', *, *, #33, .F. ) ;
#49 = ORIENTED_EDGE ( 'NONE', *, *, #6, .T. ) ;
#50 = EDGE_LOOP ( 'NONE', ( #2, #12, #11 ) ) ;
#51 = CONICAL_SURFACE ( 'NONE', #186, 12.55857864376269000, 0.7853981633974482800 ) ;
#52 = CARTESIAN_POINT ( 'NONE',  ( 0.0000000000000000000, 0.0000000000000000000, 0.8327664689780911500 ) ) ;
#53 = EDGE_CURVE ( 'NONE', #194, #67, #136, .T. ) ;
#54 = ORIENTED_EDGE ( 'NONE', *, *, #33, .T. ) ;
#55 = EDGE_CURVE ( 'NONE', #38, #43, #125, .T. ) ;
#56 = CIRCLE ( 'NONE', #126, 12.55857864376269000 ) ;
#57 = DIRECTION ( 'NONE',  ( 0.0000000000000000000, 0.0000000000000000000, -1.000000000000000000 ) ) ;
#58 = DIRECTION ( 'NONE',  ( -1.000000000000000000, 0.0000000000000000000, 0.0000000000000000000 ) ) ;
#59 = AXIS2_PLACEMENT_3D ( 'NONE', #218, #57, #225 ) ;
#60 = PERSON ( 'UNSPECIFIED', 'UNSPECIFIED', 'UNSPECIFIED', ('UNSPECIFIED'), ('UNSPECIFIED'), ('UNSPECIFIED') ) ;
#61 = PRODUCT ( '24957-E0W', '24957-E0W', '', ( #62 ) ) ;
#62 = MECHANICAL_CONTEXT ( 'NONE', #104, 'mechanical' ) ;
#63 = VERTEX_POINT ( 'NONE', #119 ) ;
#64 = MANIFOLD_SOLID_BREP ( '25002-001-1-solid1', #24 ) ;
#65 = AXIS2_PLACEMENT_3D ( 'NONE', #191, #190, #189 ) ;
#66 = AXIS2_PLACEMENT_3D ( 'NONE', #52, #88, #87 ) ;
#67 = VERTEX_POINT ( 'NONE', #122 ) ;
#68 = ORIENTED_EDGE ( 'NONE', *, *, #7, .F. ) ;
#69 = ORIENTED_EDGE ( 'NONE', *, *, #45, .T. ) ;
#70 = CARTESIAN_POINT ( 'NONE',  ( 0.0000000000000000000, 0.0000000000000000000, -1.174999999999998900 ) ) ;
#71 = AXIS2_PLACEMENT_3D ( 'NONE', #108, #107, #106 ) ;
#72 = VECTOR ( 'NONE', #223, 1000.000000000000000 ) ;
#73 = LINE ( 'NONE', #80, #72 ) ;
#74 = DIRECTION ( 'NONE',  ( -0.0000000000000000000, -0.0000000000000000000, 1.000000000000000000 ) ) ;
#75 = DIRECTION ( 'NONE',  ( 1.000000000000000000, 0.0000000000000000000, 0.0000000000000000000 ) ) ;
#76 = DIRECTION ( 'NONE',  ( -0.0000000000000000000, -0.0000000000000000000, 1.000000000000000000 ) ) ;
#77 = CARTESIAN_POINT ( 'NONE',  ( 0.0000000000000000000, 0.0000000000000000000, 0.6913451127407814800 ) ) ;
#78 = AXIS2_PLACEMENT_3D ( 'NONE', #77, #76, #75 ) ;
#79 = CIRCLE ( 'NONE', #78, 12.69999999999999900 ) ;
#80 = CARTESIAN_POINT ( 'NONE',  ( 12.69999999999999900, 1.555301434917138400E-015, 0.6913451127407814800 ) ) ;
#81 = CIRCLE ( 'NONE', #71, 12.55857864376269200 ) ;
#82 = CARTESIAN_POINT ( 'NONE',  ( 12.55857864376293000, 0.0000000000000000000, 0.8327664689780772700 ) ) ;
#83 = ORIENTED_EDGE ( 'NONE', *, *, #196, .T. ) ;
#84 = EDGE_LOOP ( 'NONE', ( #209, #195, #83, #26 ) ) ;
#85 = ADVANCED_FACE ( 'NONE', ( #148 ), #139, .T. ) ;
#86 = CARTESIAN_POINT ( 'NONE',  ( 0.0000000000000000000, 0.0000000000000000000, -228.8649995019273700 ) ) ;
#87 = DIRECTION ( 'NONE',  ( 1.000000000000000000, 0.0000000000000000000, 0.0000000000000000000 ) ) ;
#88 = DIRECTION ( 'NONE',  ( -0.0000000000000000000, -0.0000000000000000000, 1.000000000000000000 ) ) ;
#89 = FACE_OUTER_BOUND ( 'NONE', #8, .T. ) ;
#90 = CIRCLE ( 'NONE', #65, 230.0400000000000500 ) ;
#91 = DIRECTION ( 'NONE',  ( 0.7071067811865474600, 0.0000000000000000000, 0.7071067811865475700 ) ) ;
#92 = VECTOR ( 'NONE', #91, 1000.000000000000000 ) ;
#93 = LINE ( 'NONE', #213, #92 ) ;
#94 = EDGE_LOOP ( 'NONE', ( #21, #68, #69, #95 ) ) ;
#95 = ORIENTED_EDGE ( 'NONE', *, *, #53, .T. ) ;
#96 = ORIENTED_EDGE ( 'NONE', *, *, #55, .T. ) ;
#97 = DIRECTION ( 'NONE',  ( 0.0000000000000000000, 0.0000000000000000000, 1.000000000000000000 ) ) ;
#98 = ADVANCED_FACE ( 'NONE', ( #221 ), #220, .T. ) ;
#99 = ADVANCED_BREP_SHAPE_REPRESENTATION ( '24957-E0W', ( #64, #198 ), #100 ) ;
#100 =( GEOMETRIC_REPRESENTATION_CONTEXT ( 3 ) GLOBAL_UNCERTAINTY_ASSIGNED_CONTEXT ( ( #101 ) ) GLOBAL_UNIT_ASSIGNED_CONTEXT ( ( #109, #208, #102 ) ) REPRESENTATION_CONTEXT ( 'NONE', 'WORKASPACE' ) );
#101 = UNCERTAINTY_MEASURE_WITH_UNIT (LENGTH_MEASURE( 1.000000000000000100E-005 ), #109, 'distance_accuracy_value', 'NONE');
#102 =( NAMED_UNIT ( * ) SI_UNIT ( $, .STERADIAN. ) SOLID_ANGLE_UNIT ( ) );
#103 = APPLICATION_PROTOCOL_DEFINITION ( 'international standard', 'config_control_design', 1994, #104 ) ;
#104 = APPLICATION_CONTEXT ( 'configuration controlled 3d designs of mechanical parts and assemblies' ) ;
#105 = CARTESIAN_POINT ( 'NONE',  ( 0.0000000000000000000, 0.0000000000000000000, 0.0000000000000000000 ) ) ;
#106 = DIRECTION ( 'NONE',  ( 1.000000000000000000, 0.0000000000000000000, 0.0000000000000000000 ) ) ;
#107 = DIRECTION ( 'NONE',  ( -0.0000000000000000000, -0.0000000000000000000, 1.000000000000000000 ) ) ;
#108 = CARTESIAN_POINT ( 'NONE',  ( 0.0000000000000000000, 0.0000000000000000000, 0.8327664689780911500 ) ) ;
#109 =( LENGTH_UNIT ( ) NAMED_UNIT ( * ) SI_UNIT ( .MILLI., .METRE. ) );
#110 = DIRECTION ( 'NONE',  ( 1.000000000000000000, 0.0000000000000000000, 0.0000000000000000000 ) ) ;
#111 = AXIS2_PLACEMENT_3D ( 'NONE', #192, #177, #169 ) ;
#112 = FACE_OUTER_BOUND ( 'NONE', #50, .T. ) ;
#113 = DIRECTION ( 'NONE',  ( 1.000000000000000000, 0.0000000000000000000, 0.0000000000000000000 ) ) ;
#114 = DIRECTION ( 'NONE',  ( 0.0000000000000000000, -0.0000000000000000000, 1.000000000000000000 ) ) ;
#115 = CARTESIAN_POINT ( 'NONE',  ( 0.0000000000000000000, 0.0000000000000000000, -1.175000000000000000 ) ) ;
#116 = AXIS2_PLACEMENT_3D ( 'NONE', #115, #114, #113 ) ;
#117 = EDGE_LOOP ( 'NONE', ( #16, #25, #49, #23 ) ) ;
#118 = ORIENTED_EDGE ( 'NONE', *, *, #31, .F. ) ;
#119 = CARTESIAN_POINT ( 'NONE',  ( -12.55857864376293000, 1.537982313792457800E-015, 0.8327664689780772700 ) ) ;
#120 = CARTESIAN_POINT ( 'NONE',  ( 0.0000000000000000000, 0.0000000000000000000, 22.30948260650616900 ) ) ;
#121 = DIRECTION ( 'NONE',  ( -0.0000000000000000000, -0.0000000000000000000, 1.000000000000000000 ) ) ;
#122 = CARTESIAN_POINT ( 'NONE',  ( 12.69999999999999900, 0.0000000000000000000, 0.6913451127407814800 ) ) ;
#123 = DIRECTION ( 'NONE',  ( 1.000000000000000000, 0.0000000000000000000, 0.0000000000000000000 ) ) ;
#124 = DIRECTION ( 'NONE',  ( -0.0000000000000000000, -0.0000000000000000000, 1.000000000000000000 ) ) ;
#125 = CIRCLE ( 'NONE', #229, 12.69999999999999900 ) ;
#126 = AXIS2_PLACEMENT_3D ( 'NONE', #70, #74, #110 ) ;
#127 = CONICAL_SURFACE ( 'NONE', #59, 12.69999999999999900, 0.7853981633974420600 ) ;
#128 = DIRECTION ( 'NONE',  ( -0.0000000000000000000, -0.0000000000000000000, 1.000000000000000000 ) ) ;
#129 = VECTOR ( 'NONE', #128, 1000.000000000000000 ) ;
#130 = CARTESIAN_POINT ( 'NONE',  ( -12.69999999999999900, 1.555301434917138400E-015, 22.30948260650616900 ) ) ;
#131 = CARTESIAN_POINT ( 'NONE',  ( 0.0000000000000000000, 0.0000000000000000000, -1.033578643762689300 ) ) ;
#132 = AXIS2_PLACEMENT_3D ( 'NONE', #140, #124, #123 ) ;
#133 = DIRECTION ( 'NONE',  ( -0.7071067811865431300, 0.0000000000000000000, -0.7071067811865519000 ) ) ;
#134 = VECTOR ( 'NONE', #133, 1000.000000000000000 ) ;
#135 = CARTESIAN_POINT ( 'NONE',  ( -12.69999999999999900, 0.0000000000000000000, 0.6913451127407814800 ) ) ;
#136 = CIRCLE ( 'NONE', #132, 12.69999999999999900 ) ;
#137 = LINE ( 'NONE', #130, #129 ) ;
#138 = LINE ( 'NONE', #135, #134 ) ;
#139 = CYLINDRICAL_SURFACE ( 'NONE', #141, 12.69999999999999900 ) ;
#140 = CARTESIAN_POINT ( 'NONE',  ( 0.0000000000000000000, 0.0000000000000000000, 0.6913451127407814800 ) ) ;
#141 = AXIS2_PLACEMENT_3D ( 'NONE', #120, #121, #224 ) ;
#142 = DIRECTION ( 'NONE',  ( 1.000000000000000000, 0.0000000000000000000, 0.0000000000000000000 ) ) ;
#143 = DIRECTION ( 'NONE',  ( -0.0000000000000000000, -0.0000000000000000000, 1.000000000000000000 ) ) ;
#144 = CARTESIAN_POINT ( 'NONE',  ( 0.0000000000000000000, 0.0000000000000000000, -1.033578643762689300 ) ) ;
#145 = AXIS2_PLACEMENT_3D ( 'NONE', #144, #143, #142 ) ;
#146 = CIRCLE ( 'NONE', #145, 12.69999999999999900 ) ;
#147 = FACE_OUTER_BOUND ( 'NONE', #39, .T. ) ;
#148 = FACE_OUTER_BOUND ( 'NONE', #18, .T. ) ;
#149 = CARTESIAN_POINT ( 'NONE',  ( 12.69999999999999900, 0.0000000000000000000, -1.033578643762689300 ) ) ;
#150 = DIRECTION ( 'NONE',  ( 1.000000000000000000, 0.0000000000000000000, 0.0000000000000000000 ) ) ;
#151 = DIRECTION ( 'NONE',  ( -0.0000000000000000000, -0.0000000000000000000, 1.000000000000000000 ) ) ;
#152 = CYLINDRICAL_SURFACE ( 'NONE', #155, 12.69999999999999900 ) ;
#153 = CARTESIAN_POINT ( 'NONE',  ( -12.69999999999999900, 1.555301434917138400E-015, -1.033578643762689300 ) ) ;
#154 = DIRECTION ( 'NONE',  ( 1.000000000000000000, 0.0000000000000000000, 0.0000000000000000000 ) ) ;
#155 = AXIS2_PLACEMENT_3D ( 'NONE', #161, #151, #150 ) ;
#156 = AXIS2_PLACEMENT_3D ( 'NONE', #178, #171, #154 ) ;
#157 = DIRECTION ( 'NONE',  ( -0.0000000000000000000, -0.0000000000000000000, 1.000000000000000000 ) ) ;
#158 = VECTOR ( 'NONE', #157, 1000.000000000000000 ) ;
#159 = LINE ( 'NONE', #170, #158 ) ;
#160 = CARTESIAN_POINT ( 'NONE',  ( -12.55857864376269000, 1.546641874354783400E-015, -1.174999999999998900 ) ) ;
#161 = CARTESIAN_POINT ( 'NONE',  ( 0.0000000000000000000, 0.0000000000000000000, 22.30948260650616900 ) ) ;
#162 = DIRECTION ( 'NONE',  ( 1.000000000000000000, 0.0000000000000000000, 0.0000000000000000000 ) ) ;
#163 = DIRECTION ( 'NONE',  ( -0.0000000000000000000, -0.0000000000000000000, 1.000000000000000000 ) ) ;
#164 = CARTESIAN_POINT ( 'NONE',  ( 0.0000000000000000000, 0.0000000000000000000, -1.174999999999998900 ) ) ;
#165 = AXIS2_PLACEMENT_3D ( 'NONE', #164, #163, #162 ) ;
#166 = CONICAL_SURFACE ( 'NONE', #156, 12.55857864376269000, 0.7853981633974482800 ) ;
#167 = FACE_OUTER_BOUND ( 'NONE', #37, .T. ) ;
#168 = CARTESIAN_POINT ( 'NONE',  ( 12.55857864376269000, 0.0000000000000000000, -1.174999999999998900 ) ) ;
#169 = DIRECTION ( 'NONE',  ( 1.000000000000000000, 0.0000000000000000000, 0.0000000000000000000 ) ) ;
#170 = CARTESIAN_POINT ( 'NONE',  ( 12.69999999999999900, 0.0000000000000000000, 22.30948260650616900 ) ) ;
#171 = DIRECTION ( 'NONE',  ( -0.0000000000000000000, -0.0000000000000000000, 1.000000000000000000 ) ) ;
#172 = CIRCLE ( 'NONE', #165, 12.55857864376269000 ) ;
#173 = TOROIDAL_SURFACE ( 'NONE', #111, 0.01513780900200007600, 230.0400000000000200 ) ;
#174 = DIRECTION ( 'NONE',  ( -0.7071067811865474600, 8.659560562354931600E-017, 0.7071067811865475700 ) ) ;
#175 = VECTOR ( 'NONE', #174, 1000.000000000000000 ) ;
#176 = CARTESIAN_POINT ( 'NONE',  ( -12.55857864376269000, 1.537982313792428700E-015, -1.174999999999998900 ) ) ;
#177 = DIRECTION ( 'NONE',  ( -0.0000000000000000000, -0.0000000000000000000, 1.000000000000000000 ) ) ;
#178 = CARTESIAN_POINT ( 'NONE',  ( 0.0000000000000000000, 0.0000000000000000000, -1.174999999999998900 ) ) ;
#179 = DIRECTION ( 'NONE',  ( 1.000000000000000000, 0.0000000000000000000, 0.0000000000000000000 ) ) ;
#180 = DIRECTION ( 'NONE',  ( -0.0000000000000000000, -0.0000000000000000000, 1.000000000000000000 ) ) ;
#181 = CARTESIAN_POINT ( 'NONE',  ( 0.0000000000000000000, 0.0000000000000000000, -1.174999999999998900 ) ) ;
#182 = EDGE_LOOP ( 'NONE', ( #118, #14 ) ) ;
#183 = AXIS2_PLACEMENT_3D ( 'NONE', #86, #188, #206 ) ;
#184 = AXIS2_PLACEMENT_3D ( 'NONE', #204, #203, #202 ) ;
#185 = CIRCLE ( 'NONE', #184, 230.0400000000000200 ) ;
#186 = AXIS2_PLACEMENT_3D ( 'NONE', #181, #180, #179 ) ;
#187 = FACE_OUTER_BOUND ( 'NONE', #117, .T. ) ;
#188 = DIRECTION ( 'NONE',  ( -0.0000000000000000000, -0.0000000000000000000, 1.000000000000000000 ) ) ;
#189 = DIRECTION ( 'NONE',  ( 0.0000000000000000000, 0.0000000000000000000, -1.000000000000000000 ) ) ;
#190 = DIRECTION ( 'NONE',  ( 0.0000000000000000000, -1.000000000000000000, 0.0000000000000000000 ) ) ;
#191 = CARTESIAN_POINT ( 'NONE',  ( 0.01513780900200007600, 0.0000000000000000000, -228.8649995019273700 ) ) ;
#192 = CARTESIAN_POINT ( 'NONE',  ( 0.0000000000000000000, 0.0000000000000000000, -228.8649995019273700 ) ) ;
#193 = ADVANCED_FACE ( 'NONE', ( #219 ), #127, .T. ) ;
#194 = VERTEX_POINT ( 'NONE', #226 ) ;
#195 = ORIENTED_EDGE ( 'NONE', *, *, #197, .T. ) ;
#196 = EDGE_CURVE ( 'NONE', #67, #194, #79, .T. ) ;
#197 = EDGE_CURVE ( 'NONE', #211, #67, #73, .T. ) ;
#198 = AXIS2_PLACEMENT_3D ( 'NONE', #105, #97, #199 ) ;
#199 = DIRECTION ( 'NONE',  ( 1.000000000000000000, 0.0000000000000000000, 0.0000000000000000000 ) ) ;
#200 = FACE_OUTER_BOUND ( 'NONE', #182, .T. ) ;
#201 = PLANE ( 'NONE',  #116 ) ;
#202 = DIRECTION ( 'NONE',  ( -1.000000000000000000, 1.224646799147353200E-016, 0.0000000000000000000 ) ) ;
#203 = DIRECTION ( 'NONE',  ( 1.224646799147353200E-016, 1.000000000000000000, 0.0000000000000000000 ) ) ;
#204 = CARTESIAN_POINT ( 'NONE',  ( -0.01513780900200007600, 1.853846934040338200E-018, -228.8649995019273700 ) ) ;
#205 = LINE ( 'NONE', #176, #175 ) ;
#206 = DIRECTION ( 'NONE',  ( 1.000000000000000000, 0.0000000000000000000, 0.0000000000000000000 ) ) ;
#207 = EDGE_CURVE ( 'NONE', #36, #30, #56, .T. ) ;
#208 =( NAMED_UNIT ( * ) PLANE_ANGLE_UNIT ( ) SI_UNIT ( $, .RADIAN. ) );
#209 = ORIENTED_EDGE ( 'NONE', *, *, #210, .F. ) ;
#210 = EDGE_CURVE ( 'NONE', #211, #63, #81, .T. ) ;
#211 = VERTEX_POINT ( 'NONE', #82 ) ;
#212 = CARTESIAN_POINT ( 'NONE',  ( 0.0000000000000000000, 0.0000000000000000000, 1.175000000000000000 ) ) ;
#213 = CARTESIAN_POINT ( 'NONE',  ( 12.55857864376269000, 0.0000000000000000000, -1.174999999999998900 ) ) ;
#214 = TOROIDAL_SURFACE ( 'NONE', #183, 0.01513780900200007600, 230.0400000000000200 ) ;
#215 = CIRCLE ( 'NONE', #66, 12.55857864376269200 ) ;
#216 = DIRECTION ( 'NONE',  ( 0.0000000000000000000, 0.0000000000000000000, -1.000000000000000000 ) ) ;
#217 = AXIS2_PLACEMENT_3D ( 'NONE', #222, #216, #58 ) ;
#218 = CARTESIAN_POINT ( 'NONE',  ( 0.0000000000000000000, 0.0000000000000000000, 0.6913451127407814800 ) ) ;
#219 = FACE_OUTER_BOUND ( 'NONE', #84, .T. ) ;
#220 = CONICAL_SURFACE ( 'NONE', #217, 12.69999999999999900, 0.7853981633974420600 ) ;
#221 = FACE_OUTER_BOUND ( 'NONE', #94, .T. ) ;
#222 = CARTESIAN_POINT ( 'NONE',  ( 0.0000000000000000000, 0.0000000000000000000, 0.6913451127407814800 ) ) ;
#223 = DIRECTION ( 'NONE',  ( 0.7071067811865431300, 8.659560562354878600E-017, -0.7071067811865519000 ) ) ;
#224 = DIRECTION ( 'NONE',  ( 1.000000000000000000, 0.0000000000000000000, 0.0000000000000000000 ) ) ;
#225 = DIRECTION ( 'NONE',  ( -1.000000000000000000, 0.0000000000000000000, 0.0000000000000000000 ) ) ;
#226 = CARTESIAN_POINT ( 'NONE',  ( -12.69999999999999900, 1.555301434917138400E-015, 0.6913451127407814800 ) ) ;
#227 = DIRECTION ( 'NONE',  ( 1.000000000000000000, 0.0000000000000000000, 0.0000000000000000000 ) ) ;
#228 = DIRECTION ( 'NONE',  ( -0.0000000000000000000, -0.0000000000000000000, 1.000000000000000000 ) ) ;
#229 = AXIS2_PLACEMENT_3D ( 'NONE', #131, #228, #227 ) ;
#230 = CC_DESIGN_PERSON_AND_ORGANIZATION_ASSIGNMENT ( #231, #232, ( #61 ) ) ;
#231 = PERSON_AND_ORGANIZATION ( #60, #233 ) ;
#232 = PERSON_AND_ORGANIZATION_ROLE ( 'design_owner' ) ;
#233 = ORGANIZATION ( 'UNSPECIFIED', 'UNSPECIFIED', '' ) ;
#234 = SHAPE_DEFINITION_REPRESENTATION ( #235, #99 ) ;
#235 = PRODUCT_DEFINITION_SHAPE ( 'NONE', 'NONE',  #279 ) ;
#236 = CC_DESIGN_DATE_AND_TIME_ASSIGNMENT ( #238, #237, ( #279 ) ) ;
#237 = DATE_TIME_ROLE ( 'creation_date' ) ;
#238 = DATE_AND_TIME ( #239, #240 ) ;
#239 = CALENDAR_DATE ( 2012, 1, 10 ) ;
#240 = LOCAL_TIME ( 10, 7, 5.000000000000000000, #241 ) ;
#241 = COORDINATED_UNIVERSAL_TIME_OFFSET ( 5, 0, .BEHIND. ) ;
#242 = CC_DESIGN_PERSON_AND_ORGANIZATION_ASSIGNMENT ( #244, #243, ( #301 ) ) ;
#243 = PERSON_AND_ORGANIZATION_ROLE ( 'creator' ) ;
#244 = PERSON_AND_ORGANIZATION ( #60, #233 ) ;
#245 = CC_DESIGN_APPROVAL ( #298, ( #301 ) ) ;
#246 = APPROVAL_DATE_TIME ( #247, #298 ) ;
#247 = DATE_AND_TIME ( #248, #294 ) ;
#248 = CALENDAR_DATE ( 2012, 1, 10 ) ;
#249 = CC_DESIGN_DATE_AND_TIME_ASSIGNMENT ( #251, #250, ( #274 ) ) ;
#250 = DATE_TIME_ROLE ( 'classification_date' ) ;
#251 = DATE_AND_TIME ( #252, #253 ) ;
#252 = CALENDAR_DATE ( 2012, 1, 10 ) ;
#253 = LOCAL_TIME ( 10, 7, 5.000000000000000000, #254 ) ;
#254 = COORDINATED_UNIVERSAL_TIME_OFFSET ( 5, 0, .BEHIND. ) ;
#255 = CC_DESIGN_PERSON_AND_ORGANIZATION_ASSIGNMENT ( #256, #273, ( #274 ) ) ;
#256 = PERSON_AND_ORGANIZATION ( #60, #233 ) ;
#257 = CC_DESIGN_PERSON_AND_ORGANIZATION_ASSIGNMENT ( #259, #258, ( #279 ) ) ;
#258 = PERSON_AND_ORGANIZATION_ROLE ( 'creator' ) ;
#259 = PERSON_AND_ORGANIZATION ( #60, #233 ) ;
#260 = CC_DESIGN_APPROVAL ( #290, ( #279 ) ) ;
#261 = APPROVAL_DATE_TIME ( #262, #290 ) ;
#262 = DATE_AND_TIME ( #263, #264 ) ;
#263 = CALENDAR_DATE ( 2012, 1, 10 ) ;
#264 = LOCAL_TIME ( 10, 7, 5.000000000000000000, #265 ) ;
#265 = COORDINATED_UNIVERSAL_TIME_OFFSET ( 5, 0, .BEHIND. ) ;
#266 = APPROVAL_PERSON_ORGANIZATION ( #292, #290, #267 ) ;
#267 = APPROVAL_ROLE ( '' ) ;
#268 = PRODUCT_RELATED_PRODUCT_CATEGORY ( 'detail', '', ( #61 ) ) ;
#269 = CC_DESIGN_SECURITY_CLASSIFICATION ( #274, ( #301 ) ) ;
#270 = CC_DESIGN_APPROVAL ( #286, ( #274 ) ) ;
#271 = APPROVAL_DATE_TIME ( #272, #286 ) ;
#272 = DATE_AND_TIME ( #281, #282 ) ;
#273 = PERSON_AND_ORGANIZATION_ROLE ( 'classification_officer' ) ;
#274 = SECURITY_CLASSIFICATION ( '', '', #275 ) ;
#275 = SECURITY_CLASSIFICATION_LEVEL ( 'unclassified' ) ;
#276 = CC_DESIGN_PERSON_AND_ORGANIZATION_ASSIGNMENT ( #278, #277, ( #301 ) ) ;
#277 = PERSON_AND_ORGANIZATION_ROLE ( 'design_supplier' ) ;
#278 = PERSON_AND_ORGANIZATION ( #60, #233 ) ;
#279 = PRODUCT_DEFINITION ( 'UNKNOWN', '', #301, #293 ) ;
#280 = APPLICATION_CONTEXT ( 'configuration controlled 3d designs of mechanical parts and assemblies' ) ;
#281 = CALENDAR_DATE ( 2012, 1, 10 ) ;
#282 = LOCAL_TIME ( 10, 7, 5.000000000000000000, #283 ) ;
#283 = COORDINATED_UNIVERSAL_TIME_OFFSET ( 5, 0, .BEHIND. ) ;
#284 = APPROVAL_PERSON_ORGANIZATION ( #288, #286, #285 ) ;
#285 = APPROVAL_ROLE ( '' ) ;
#286 = APPROVAL ( #287, 'UNSPECIFIED' ) ;
#287 = APPROVAL_STATUS ( 'not_yet_approved' ) ;
#288 = PERSON_AND_ORGANIZATION ( #60, #233 ) ;
#289 = APPLICATION_PROTOCOL_DEFINITION ( 'international standard', 'config_control_design', 1994, #280 ) ;
#290 = APPROVAL ( #291, 'UNSPECIFIED' ) ;
#291 = APPROVAL_STATUS ( 'not_yet_approved' ) ;
#292 = PERSON_AND_ORGANIZATION ( #60, #233 ) ;
#293 = DESIGN_CONTEXT ( 'detailed design', #280, 'design' ) ;
#294 = LOCAL_TIME ( 10, 7, 5.000000000000000000, #295 ) ;
#295 = COORDINATED_UNIVERSAL_TIME_OFFSET ( 5, 0, .BEHIND. ) ;
#296 = APPROVAL_PERSON_ORGANIZATION ( #300, #298, #297 ) ;
#297 = APPROVAL_ROLE ( '' ) ;
#298 = APPROVAL ( #299, 'UNSPECIFIED' ) ;
#299 = APPROVAL_STATUS ( 'not_yet_approved' ) ;
#300 = PERSON_AND_ORGANIZATION ( #60, #233 ) ;
#301 = PRODUCT_DEFINITION_FORMATION_WITH_SPECIFIED_SOURCE ( 'ANY', '', #61, .NOT_KNOWN. ) ;
ENDSEC;
END-ISO-10303-21;
