ISO-10303-21;
HEADER;
FILE_DESCRIPTION (( 'STEP AP203' ),
    '1' );
FILE_NAME ('48920_Default.step',
    '2017-04-12T17:39:41',
    ( '' ),
    ( '' ),
    'SwSTEP 2.0',
    'SolidWorks 2016',
    '' );
FILE_SCHEMA (( 'CONFIG_CONTROL_DESIGN' ));
ENDSEC;

DATA;
#1 = ORIENTED_EDGE ( 'NONE', *, *, #146, .F. ) ;
#2 = APPROVAL_ROLE ( '' ) ;
#3 = CARTESIAN_POINT ( 'NONE',  ( 0.0000000000000000000, 0.0000000000000000000, -0.5000000000000000000 ) ) ;
#4 = ORIENTED_EDGE ( 'NONE', *, *, #136, .F. ) ;
#5 = DIRECTION ( 'NONE',  ( 1.000000000000000000, 0.0000000000000000000, -0.0000000000000000000 ) ) ;
#6 = DIRECTION ( 'NONE',  ( -0.0000000000000000000, -0.0000000000000000000, -1.000000000000000000 ) ) ;
#7 =( GEOMETRIC_REPRESENTATION_CONTEXT ( 3 ) GLOBAL_UNCERTAINTY_ASSIGNED_CONTEXT ( ( #66 ) ) GLOBAL_UNIT_ASSIGNED_CONTEXT ( ( #116, #30, #129 ) ) REPRESENTATION_CONTEXT ( 'NONE', 'WORKASPACE' ) );
#8 = APPROVAL_DATE_TIME ( #44, #74 ) ;
#9 = DIRECTION ( 'NONE',  ( 0.0000000000000000000, 0.0000000000000000000, 1.000000000000000000 ) ) ;
#10 = ORGANIZATION ( 'UNSPECIFIED', 'UNSPECIFIED', '' ) ;
#11 = APPROVAL_DATE_TIME ( #45, #114 ) ;
#12 = PERSON_AND_ORGANIZATION ( #76, #10 ) ;
#13 = CARTESIAN_POINT ( 'NONE',  ( 0.0000000000000000000, 0.0000000000000000000, 0.0000000000000000000 ) ) ;
#14 = PERSON_AND_ORGANIZATION_ROLE ( 'design_supplier' ) ;
#15 = DIRECTION ( 'NONE',  ( 1.000000000000000000, 0.0000000000000000000, 0.0000000000000000000 ) ) ;
#16 = APPROVAL_PERSON_ORGANIZATION ( #50, #114, #142 ) ;
#17 = SHAPE_DEFINITION_REPRESENTATION ( #166, #49 ) ;
#18 = AXIS2_PLACEMENT_3D ( 'NONE', #117, #6, #148 ) ;
#19 = CARTESIAN_POINT ( 'NONE',  ( 0.0000000000000000000, 0.0000000000000000000, 0.5000000000000000000 ) ) ;
#20 = ORIENTED_EDGE ( 'NONE', *, *, #173, .T. ) ;
#21 = DATE_AND_TIME ( #60, #102 ) ;
#22 = EDGE_LOOP ( 'NONE', ( #169, #138 ) ) ;
#23 = FACE_OUTER_BOUND ( 'NONE', #40, .T. ) ;
#24 = ORIENTED_EDGE ( 'NONE', *, *, #136, .T. ) ;
#25 = ADVANCED_FACE ( 'NONE', ( #46 ), #134, .T. ) ;
#26 = AXIS2_PLACEMENT_3D ( 'NONE', #131, #41, #147 ) ;
#27 = CARTESIAN_POINT ( 'NONE',  ( 17.50000000000000400, 2.143131898507868600E-015, 0.5000000000000000000 ) ) ;
#28 = PERSON_AND_ORGANIZATION ( #76, #10 ) ;
#29 = PERSON_AND_ORGANIZATION_ROLE ( 'classification_officer' ) ;
#30 =( NAMED_UNIT ( * ) PLANE_ANGLE_UNIT ( ) SI_UNIT ( $, .RADIAN. ) );
#31 = ORIENTED_EDGE ( 'NONE', *, *, #146, .T. ) ;
#32 = MANIFOLD_SOLID_BREP ( 'Boss-Extrude1', #172 ) ;
#33 = AXIS2_PLACEMENT_3D ( 'NONE', #139, #54, #152 ) ;
#34 = DIRECTION ( 'NONE',  ( -0.0000000000000000000, -0.0000000000000000000, -1.000000000000000000 ) ) ;
#35 = APPLICATION_CONTEXT ( 'configuration controlled 3d designs of mechanical parts and assemblies' ) ;
#36 = APPROVAL_STATUS ( 'not_yet_approved' ) ;
#37 = DIRECTION ( 'NONE',  ( 0.0000000000000000000, 0.0000000000000000000, 1.000000000000000000 ) ) ;
#38 = DATE_AND_TIME ( #82, #120 ) ;
#39 = AXIS2_PLACEMENT_3D ( 'NONE', #174, #92, #5 ) ;
#40 = EDGE_LOOP ( 'NONE', ( #24, #77 ) ) ;
#41 = DIRECTION ( 'NONE',  ( 0.0000000000000000000, 0.0000000000000000000, 1.000000000000000000 ) ) ;
#42 = AXIS2_PLACEMENT_3D ( 'NONE', #13, #37, #70 ) ;
#43 = CARTESIAN_POINT ( 'NONE',  ( -17.50000000000000400, 0.0000000000000000000, -0.5000000000000000000 ) ) ;
#44 = DATE_AND_TIME ( #86, #121 ) ;
#45 = DATE_AND_TIME ( #89, #124 ) ;
#46 = FACE_OUTER_BOUND ( 'NONE', #95, .T. ) ;
#47 = PERSON_AND_ORGANIZATION ( #76, #10 ) ;
#48 = CIRCLE ( 'NONE', #63, 17.50000000000000400 ) ;
#49 = ADVANCED_BREP_SHAPE_REPRESENTATION ( '48920_Default', ( #32, #42 ), #7 ) ;
#50 = PERSON_AND_ORGANIZATION ( #76, #10 ) ;
#51 = CIRCLE ( 'NONE', #83, 17.50000000000000400 ) ;
#52 = LINE ( 'NONE', #27, #165 ) ;
#53 = AXIS2_PLACEMENT_3D ( 'NONE', #58, #155, #69 ) ;
#54 = DIRECTION ( 'NONE',  ( 0.0000000000000000000, 0.0000000000000000000, 1.000000000000000000 ) ) ;
#55 = APPROVAL_STATUS ( 'not_yet_approved' ) ;
#56 = CC_DESIGN_PERSON_AND_ORGANIZATION_ASSIGNMENT ( #157, #126, ( #161 ) ) ;
#57 = EDGE_LOOP ( 'NONE', ( #163, #31, #109, #132 ) ) ;
#58 = CARTESIAN_POINT ( 'NONE',  ( 0.0000000000000000000, 0.0000000000000000000, 0.5000000000000000000 ) ) ;
#59 = ORIENTED_EDGE ( 'NONE', *, *, #78, .T. ) ;
#60 = CALENDAR_DATE ( 2017, 12, 4 ) ;
#61 = VERTEX_POINT ( 'NONE', #43 ) ;
#62 = LINE ( 'NONE', #93, #98 ) ;
#63 = AXIS2_PLACEMENT_3D ( 'NONE', #141, #9, #128 ) ;
#64 = DATE_AND_TIME ( #106, #79 ) ;
#65 = PRODUCT_DEFINITION ( 'UNKNOWN', '', #113, #110 ) ;
#66 = UNCERTAINTY_MEASURE_WITH_UNIT (LENGTH_MEASURE( 1.000000000000000100E-005 ), #116, 'distance_accuracy_value', 'NONE');
#67 = CARTESIAN_POINT ( 'NONE',  ( 17.50000000000000400, 2.143131898507868600E-015, 0.5000000000000000000 ) ) ;
#68 = PERSON_AND_ORGANIZATION_ROLE ( 'creator' ) ;
#69 = DIRECTION ( 'NONE',  ( 1.000000000000000000, 0.0000000000000000000, 0.0000000000000000000 ) ) ;
#70 = DIRECTION ( 'NONE',  ( 1.000000000000000000, 0.0000000000000000000, 0.0000000000000000000 ) ) ;
#71 = PLANE ( 'NONE',  #26 ) ;
#72 = AXIS2_PLACEMENT_3D ( 'NONE', #19, #84, #167 ) ;
#73 = CARTESIAN_POINT ( 'NONE',  ( -17.50000000000000400, 0.0000000000000000000, 0.5000000000000000000 ) ) ;
#74 = APPROVAL ( #55, 'UNSPECIFIED' ) ;
#75 = CC_DESIGN_PERSON_AND_ORGANIZATION_ASSIGNMENT ( #47, #14, ( #113 ) ) ;
#76 = PERSON ( 'UNSPECIFIED', 'UNSPECIFIED', 'UNSPECIFIED', ('UNSPECIFIED'), ('UNSPECIFIED'), ('UNSPECIFIED') ) ;
#77 = ORIENTED_EDGE ( 'NONE', *, *, #164, .T. ) ;
#78 = EDGE_CURVE ( 'NONE', #103, #61, #62, .T. ) ;
#79 = LOCAL_TIME ( 13, 39, 41.00000000000000000, #118 ) ;
#80 = APPROVAL_PERSON_ORGANIZATION ( #119, #74, #153 ) ;
#81 = ADVANCED_FACE ( 'NONE', ( #170 ), #71, .F. ) ;
#82 = CALENDAR_DATE ( 2017, 12, 4 ) ;
#83 = AXIS2_PLACEMENT_3D ( 'NONE', #3, #105, #15 ) ;
#84 = DIRECTION ( 'NONE',  ( -0.0000000000000000000, -0.0000000000000000000, -1.000000000000000000 ) ) ;
#85 = APPROVAL_STATUS ( 'not_yet_approved' ) ;
#86 = CALENDAR_DATE ( 2017, 12, 4 ) ;
#87 = CC_DESIGN_APPROVAL ( #74, ( #65 ) ) ;
#88 = SECURITY_CLASSIFICATION ( '', '', #112 ) ;
#89 = CALENDAR_DATE ( 2017, 12, 4 ) ;
#90 = PERSON_AND_ORGANIZATION ( #76, #10 ) ;
#91 = FACE_OUTER_BOUND ( 'NONE', #57, .T. ) ;
#92 = DIRECTION ( 'NONE',  ( 0.0000000000000000000, 0.0000000000000000000, 1.000000000000000000 ) ) ;
#93 = CARTESIAN_POINT ( 'NONE',  ( -17.50000000000000400, 0.0000000000000000000, 0.5000000000000000000 ) ) ;
#94 = CIRCLE ( 'NONE', #33, 17.50000000000000400 ) ;
#95 = EDGE_LOOP ( 'NONE', ( #1, #4, #59, #20 ) ) ;
#96 = CC_DESIGN_PERSON_AND_ORGANIZATION_ASSIGNMENT ( #154, #68, ( #65 ) ) ;
#97 = CC_DESIGN_PERSON_AND_ORGANIZATION_ASSIGNMENT ( #12, #29, ( #88 ) ) ;
#98 = VECTOR ( 'NONE', #111, 1000.000000000000000 ) ;
#99 = ADVANCED_FACE ( 'NONE', ( #23 ), #159, .T. ) ;
#100 = CARTESIAN_POINT ( 'NONE',  ( 17.50000000000000400, 2.143131898507868600E-015, -0.5000000000000000000 ) ) ;
#101 = PERSON_AND_ORGANIZATION_ROLE ( 'creator' ) ;
#102 = LOCAL_TIME ( 13, 39, 41.00000000000000000, #137 ) ;
#103 = VERTEX_POINT ( 'NONE', #73 ) ;
#104 = CYLINDRICAL_SURFACE ( 'NONE', #72, 17.50000000000000400 ) ;
#105 = DIRECTION ( 'NONE',  ( 0.0000000000000000000, 0.0000000000000000000, 1.000000000000000000 ) ) ;
#106 = CALENDAR_DATE ( 2017, 12, 4 ) ;
#107 = CC_DESIGN_DATE_AND_TIME_ASSIGNMENT ( #64, #168, ( #65 ) ) ;
#108 = CC_DESIGN_DATE_AND_TIME_ASSIGNMENT ( #38, #127, ( #88 ) ) ;
#109 = ORIENTED_EDGE ( 'NONE', *, *, #151, .T. ) ;
#110 = DESIGN_CONTEXT ( 'detailed design', #35, 'design' ) ;
#111 = DIRECTION ( 'NONE',  ( -0.0000000000000000000, -0.0000000000000000000, -1.000000000000000000 ) ) ;
#112 = SECURITY_CLASSIFICATION_LEVEL ( 'unclassified' ) ;
#113 = PRODUCT_DEFINITION_FORMATION_WITH_SPECIFIED_SOURCE ( 'ANY', '', #161, .NOT_KNOWN. ) ;
#114 = APPROVAL ( #36, 'UNSPECIFIED' ) ;
#115 = VERTEX_POINT ( 'NONE', #100 ) ;
#116 =( LENGTH_UNIT ( ) NAMED_UNIT ( * ) SI_UNIT ( .MILLI., .METRE. ) );
#117 = CARTESIAN_POINT ( 'NONE',  ( 0.0000000000000000000, 0.0000000000000000000, 0.5000000000000000000 ) ) ;
#118 = COORDINATED_UNIVERSAL_TIME_OFFSET ( 5, 0, .BEHIND. ) ;
#119 = PERSON_AND_ORGANIZATION ( #76, #10 ) ;
#120 = LOCAL_TIME ( 13, 39, 41.00000000000000000, #158 ) ;
#121 = LOCAL_TIME ( 13, 39, 41.00000000000000000, #160 ) ;
#122 = APPROVAL ( #85, 'UNSPECIFIED' ) ;
#123 = CC_DESIGN_APPROVAL ( #114, ( #88 ) ) ;
#124 = LOCAL_TIME ( 13, 39, 41.00000000000000000, #162 ) ;
#125 = APPROVAL_DATE_TIME ( #21, #122 ) ;
#126 = PERSON_AND_ORGANIZATION_ROLE ( 'design_owner' ) ;
#127 = DATE_TIME_ROLE ( 'classification_date' ) ;
#128 = DIRECTION ( 'NONE',  ( 1.000000000000000000, 0.0000000000000000000, 0.0000000000000000000 ) ) ;
#129 =( NAMED_UNIT ( * ) SI_UNIT ( $, .STERADIAN. ) SOLID_ANGLE_UNIT ( ) );
#130 = CIRCLE ( 'NONE', #53, 17.50000000000000400 ) ;
#131 = CARTESIAN_POINT ( 'NONE',  ( 0.0000000000000000000, 0.0000000000000000000, -0.5000000000000000000 ) ) ;
#132 = ORIENTED_EDGE ( 'NONE', *, *, #78, .F. ) ;
#133 = CC_DESIGN_APPROVAL ( #122, ( #113 ) ) ;
#134 = CYLINDRICAL_SURFACE ( 'NONE', #18, 17.50000000000000400 ) ;
#135 = CC_DESIGN_SECURITY_CLASSIFICATION ( #88, ( #113 ) ) ;
#136 = EDGE_CURVE ( 'NONE', #103, #149, #94, .T. ) ;
#137 = COORDINATED_UNIVERSAL_TIME_OFFSET ( 5, 0, .BEHIND. ) ;
#138 = ORIENTED_EDGE ( 'NONE', *, *, #151, .F. ) ;
#139 = CARTESIAN_POINT ( 'NONE',  ( 0.0000000000000000000, 0.0000000000000000000, 0.5000000000000000000 ) ) ;
#140 = APPLICATION_PROTOCOL_DEFINITION ( 'international standard', 'config_control_design', 1994, #35 ) ;
#141 = CARTESIAN_POINT ( 'NONE',  ( 0.0000000000000000000, 0.0000000000000000000, -0.5000000000000000000 ) ) ;
#142 = APPROVAL_ROLE ( '' ) ;
#143 = CC_DESIGN_PERSON_AND_ORGANIZATION_ASSIGNMENT ( #90, #101, ( #113 ) ) ;
#144 = PRODUCT_RELATED_PRODUCT_CATEGORY ( 'detail', '', ( #161 ) ) ;
#145 = APPLICATION_PROTOCOL_DEFINITION ( 'international standard', 'config_control_design', 1994, #156 ) ;
#146 = EDGE_CURVE ( 'NONE', #149, #115, #52, .T. ) ;
#147 = DIRECTION ( 'NONE',  ( 1.000000000000000000, 0.0000000000000000000, -0.0000000000000000000 ) ) ;
#148 = DIRECTION ( 'NONE',  ( -1.000000000000000000, 0.0000000000000000000, 0.0000000000000000000 ) ) ;
#149 = VERTEX_POINT ( 'NONE', #67 ) ;
#150 = ADVANCED_FACE ( 'NONE', ( #91 ), #104, .T. ) ;
#151 = EDGE_CURVE ( 'NONE', #115, #61, #48, .T. ) ;
#152 = DIRECTION ( 'NONE',  ( 1.000000000000000000, 0.0000000000000000000, 0.0000000000000000000 ) ) ;
#153 = APPROVAL_ROLE ( '' ) ;
#154 = PERSON_AND_ORGANIZATION ( #76, #10 ) ;
#155 = DIRECTION ( 'NONE',  ( 0.0000000000000000000, 0.0000000000000000000, 1.000000000000000000 ) ) ;
#156 = APPLICATION_CONTEXT ( 'configuration controlled 3d designs of mechanical parts and assemblies' ) ;
#157 = PERSON_AND_ORGANIZATION ( #76, #10 ) ;
#158 = COORDINATED_UNIVERSAL_TIME_OFFSET ( 5, 0, .BEHIND. ) ;
#159 = PLANE ( 'NONE',  #39 ) ;
#160 = COORDINATED_UNIVERSAL_TIME_OFFSET ( 5, 0, .BEHIND. ) ;
#161 = PRODUCT ( '48920_Default', '48920_Default', '', ( #171 ) ) ;
#162 = COORDINATED_UNIVERSAL_TIME_OFFSET ( 5, 0, .BEHIND. ) ;
#163 = ORIENTED_EDGE ( 'NONE', *, *, #164, .F. ) ;
#164 = EDGE_CURVE ( 'NONE', #149, #103, #130, .T. ) ;
#165 = VECTOR ( 'NONE', #34, 1000.000000000000000 ) ;
#166 = PRODUCT_DEFINITION_SHAPE ( 'NONE', 'NONE',  #65 ) ;
#167 = DIRECTION ( 'NONE',  ( -1.000000000000000000, 0.0000000000000000000, 0.0000000000000000000 ) ) ;
#168 = DATE_TIME_ROLE ( 'creation_date' ) ;
#169 = ORIENTED_EDGE ( 'NONE', *, *, #173, .F. ) ;
#170 = FACE_OUTER_BOUND ( 'NONE', #22, .T. ) ;
#171 = MECHANICAL_CONTEXT ( 'NONE', #156, 'mechanical' ) ;
#172 = CLOSED_SHELL ( 'NONE', ( #150, #25, #99, #81 ) ) ;
#173 = EDGE_CURVE ( 'NONE', #61, #115, #51, .T. ) ;
#174 = CARTESIAN_POINT ( 'NONE',  ( 0.0000000000000000000, 0.0000000000000000000, 0.5000000000000000000 ) ) ;
#175 = APPROVAL_PERSON_ORGANIZATION ( #28, #122, #2 ) ;
ENDSEC;
END-ISO-10303-21;
