ISO-10303-21;
HEADER;
FILE_DESCRIPTION (( 'STEP AP203' ),
    '1' );
FILE_NAME ('Web Model 46459_46459.step',
    '2018-03-15T18:33:02',
    ( '' ),
    ( '' ),
    'SwSTEP 2.0',
    'SolidWorks 2016',
    '' );
FILE_SCHEMA (( 'CONFIG_CONTROL_DESIGN' ));
ENDSEC;

DATA;
#1 = LINE ( 'NONE', #133, #128 ) ;
#2 = VERTEX_POINT ( 'NONE', #109 ) ;
#3 = PLANE ( 'NONE',  #11 ) ;
#4 = EDGE_CURVE ( 'NONE', #144, #180, #165, .T. ) ;
#5 = DATE_AND_TIME ( #82, #126 ) ;
#6 = LINE ( 'NONE', #47, #235 ) ;
#7 = EDGE_CURVE ( 'NONE', #16, #156, #225, .T. ) ;
#8 = DIRECTION ( 'NONE',  ( 0.0000000000000000000, -1.000000000000000000, 0.0000000000000000000 ) ) ;
#9 = PERSON_AND_ORGANIZATION ( #188, #212 ) ;
#10 = DIRECTION ( 'NONE',  ( 0.0000000000000000000, 0.0000000000000000000, -1.000000000000000000 ) ) ;
#11 = AXIS2_PLACEMENT_3D ( 'NONE', #17, #60, #143 ) ;
#12 = DIRECTION ( 'NONE',  ( 0.0000000000000000000, 0.0000000000000000000, -1.000000000000000000 ) ) ;
#13 = APPROVAL_ROLE ( '' ) ;
#14 = APPROVAL_DATE_TIME ( #110, #166 ) ;
#15 = FACE_OUTER_BOUND ( 'NONE', #101, .T. ) ;
#16 = VERTEX_POINT ( 'NONE', #42 ) ;
#17 = CARTESIAN_POINT ( 'NONE',  ( 0.7500000000000000000, -12.70000000000000100, 12.70000000000000500 ) ) ;
#18 = DIRECTION ( 'NONE',  ( -1.000000000000000000, -0.0000000000000000000, -0.0000000000000000000 ) ) ;
#19 = PERSON_AND_ORGANIZATION ( #188, #212 ) ;
#20 = CARTESIAN_POINT ( 'NONE',  ( 0.7500000000000000000, -12.70000000000000100, -12.70000000000000500 ) ) ;
#21 = DIRECTION ( 'NONE',  ( -1.000000000000000000, -0.0000000000000000000, -0.0000000000000000000 ) ) ;
#22 = ADVANCED_FACE ( 'NONE', ( #24 ), #125, .F. ) ;
#23 = COORDINATED_UNIVERSAL_TIME_OFFSET ( 5, 0, .BEHIND. ) ;
#24 = FACE_OUTER_BOUND ( 'NONE', #53, .T. ) ;
#25 = ORIENTED_EDGE ( 'NONE', *, *, #66, .T. ) ;
#26 = DIRECTION ( 'NONE',  ( 0.0000000000000000000, -0.0000000000000000000, -1.000000000000000000 ) ) ;
#27 = FACE_OUTER_BOUND ( 'NONE', #138, .T. ) ;
#28 = ORIENTED_EDGE ( 'NONE', *, *, #194, .F. ) ;
#29 = DIRECTION ( 'NONE',  ( 1.000000000000000000, 0.0000000000000000000, 0.0000000000000000000 ) ) ;
#30 = DIRECTION ( 'NONE',  ( 0.0000000000000000000, 0.0000000000000000000, 1.000000000000000000 ) ) ;
#31 = EDGE_LOOP ( 'NONE', ( #86, #115, #152, #197 ) ) ;
#32 = CC_DESIGN_DATE_AND_TIME_ASSIGNMENT ( #154, #215, ( #149 ) ) ;
#33 = SECURITY_CLASSIFICATION_LEVEL ( 'unclassified' ) ;
#34 = EDGE_CURVE ( 'NONE', #2, #75, #52, .T. ) ;
#35 = PERSON_AND_ORGANIZATION_ROLE ( 'creator' ) ;
#36 = ORIENTED_EDGE ( 'NONE', *, *, #94, .F. ) ;
#37 = PERSON_AND_ORGANIZATION_ROLE ( 'design_supplier' ) ;
#38 = FACE_OUTER_BOUND ( 'NONE', #31, .T. ) ;
#39 = DIRECTION ( 'NONE',  ( 0.0000000000000000000, -2.048885995248197400E-016, -1.000000000000000000 ) ) ;
#40 = DIRECTION ( 'NONE',  ( 0.0000000000000000000, 1.000000000000000000, -2.048885995248197400E-016 ) ) ;
#41 = VERTEX_POINT ( 'NONE', #99 ) ;
#42 = CARTESIAN_POINT ( 'NONE',  ( -0.7500000000000000000, 12.69999999999999800, 12.69999999999999900 ) ) ;
#43 = ADVANCED_FACE ( 'NONE', ( #38 ), #3, .F. ) ;
#44 = UNCERTAINTY_MEASURE_WITH_UNIT (LENGTH_MEASURE( 1.000000000000000100E-005 ), #150, 'distance_accuracy_value', 'NONE');
#45 = EDGE_CURVE ( 'NONE', #75, #139, #179, .T. ) ;
#46 = CARTESIAN_POINT ( 'NONE',  ( 0.7500000000000000000, 12.69999999999999800, -12.69999999999999900 ) ) ;
#47 = CARTESIAN_POINT ( 'NONE',  ( -0.7500000000000000000, -12.70000000000000100, 12.70000000000000500 ) ) ;
#48 = PLANE ( 'NONE',  #90 ) ;
#49 = PERSON_AND_ORGANIZATION ( #188, #212 ) ;
#50 = CC_DESIGN_APPROVAL ( #166, ( #149 ) ) ;
#51 = DIRECTION ( 'NONE',  ( -0.0000000000000000000, -0.0000000000000000000, 1.000000000000000000 ) ) ;
#52 = LINE ( 'NONE', #162, #232 ) ;
#53 = EDGE_LOOP ( 'NONE', ( #218, #108, #70, #62 ) ) ;
#54 = PERSON_AND_ORGANIZATION_ROLE ( 'design_owner' ) ;
#55 = CC_DESIGN_SECURITY_CLASSIFICATION ( #149, ( #121 ) ) ;
#56 = EDGE_CURVE ( 'NONE', #2, #156, #100, .T. ) ;
#57 = ORIENTED_EDGE ( 'NONE', *, *, #135, .F. ) ;
#58 = VECTOR ( 'NONE', #196, 1000.000000000000000 ) ;
#59 = PRODUCT_DEFINITION ( 'UNKNOWN', '', #121, #175 ) ;
#60 = DIRECTION ( 'NONE',  ( -0.0000000000000000000, 1.000000000000000000, 0.0000000000000000000 ) ) ;
#61 = COORDINATED_UNIVERSAL_TIME_OFFSET ( 5, 0, .BEHIND. ) ;
#62 = ORIENTED_EDGE ( 'NONE', *, *, #81, .T. ) ;
#63 = VECTOR ( 'NONE', #21, 1000.000000000000000 ) ;
#64 = DIRECTION ( 'NONE',  ( -1.000000000000000000, -0.0000000000000000000, -0.0000000000000000000 ) ) ;
#65 = CARTESIAN_POINT ( 'NONE',  ( 0.7500000000000000000, 12.69999999999999800, -12.69999999999999900 ) ) ;
#66 = EDGE_CURVE ( 'NONE', #144, #41, #230, .T. ) ;
#67 = CARTESIAN_POINT ( 'NONE',  ( 0.0000000000000000000, 0.0000000000000000000, 0.0000000000000000000 ) ) ;
#68 = DIRECTION ( 'NONE',  ( 0.0000000000000000000, -2.048885995248197400E-016, 1.000000000000000000 ) ) ;
#69 = DIRECTION ( 'NONE',  ( 1.000000000000000000, 0.0000000000000000000, 0.0000000000000000000 ) ) ;
#70 = ORIENTED_EDGE ( 'NONE', *, *, #98, .F. ) ;
#71 = DATE_TIME_ROLE ( 'creation_date' ) ;
#72 = APPLICATION_CONTEXT ( 'configuration controlled 3d designs of mechanical parts and assemblies' ) ;
#73 = ORIENTED_EDGE ( 'NONE', *, *, #129, .F. ) ;
#74 = AXIS2_PLACEMENT_3D ( 'NONE', #67, #30, #69 ) ;
#75 = VERTEX_POINT ( 'NONE', #205 ) ;
#76 = CARTESIAN_POINT ( 'NONE',  ( 0.7500000000000000000, -12.70000000000000100, 12.70000000000000500 ) ) ;
#77 = ADVANCED_FACE ( 'NONE', ( #85 ), #220, .F. ) ;
#78 = COORDINATED_UNIVERSAL_TIME_OFFSET ( 5, 0, .BEHIND. ) ;
#79 = EDGE_LOOP ( 'NONE', ( #93, #233, #213, #146 ) ) ;
#80 = DIRECTION ( 'NONE',  ( -1.000000000000000000, -0.0000000000000000000, -0.0000000000000000000 ) ) ;
#81 = EDGE_CURVE ( 'NONE', #41, #16, #1, .T. ) ;
#82 = CALENDAR_DATE ( 2018, 15, 3 ) ;
#83 = CC_DESIGN_DATE_AND_TIME_ASSIGNMENT ( #222, #71, ( #59 ) ) ;
#84 = LINE ( 'NONE', #190, #111 ) ;
#85 = FACE_OUTER_BOUND ( 'NONE', #79, .T. ) ;
#86 = ORIENTED_EDGE ( 'NONE', *, *, #129, .T. ) ;
#87 = APPLICATION_PROTOCOL_DEFINITION ( 'international standard', 'config_control_design', 1994, #172 ) ;
#88 = CARTESIAN_POINT ( 'NONE',  ( -0.7500000000000000000, 12.69999999999999800, -12.69999999999999900 ) ) ;
#89 = VECTOR ( 'NONE', #163, 1000.000000000000000 ) ;
#90 = AXIS2_PLACEMENT_3D ( 'NONE', #116, #136, #10 ) ;
#91 = DIRECTION ( 'NONE',  ( 0.0000000000000000000, -1.000000000000000000, 2.048885995248197400E-016 ) ) ;
#92 = PERSON_AND_ORGANIZATION_ROLE ( 'creator' ) ;
#93 = ORIENTED_EDGE ( 'NONE', *, *, #135, .T. ) ;
#94 = EDGE_CURVE ( 'NONE', #75, #144, #191, .T. ) ;
#95 = COORDINATED_UNIVERSAL_TIME_OFFSET ( 5, 0, .BEHIND. ) ;
#96 = CC_DESIGN_PERSON_AND_ORGANIZATION_ASSIGNMENT ( #204, #54, ( #147 ) ) ;
#97 = DIRECTION ( 'NONE',  ( -0.0000000000000000000, -0.0000000000000000000, 1.000000000000000000 ) ) ;
#98 = EDGE_CURVE ( 'NONE', #41, #2, #84, .T. ) ;
#99 = CARTESIAN_POINT ( 'NONE',  ( 0.7500000000000000000, 12.69999999999999800, 12.69999999999999900 ) ) ;
#100 = LINE ( 'NONE', #76, #170 ) ;
#101 = EDGE_LOOP ( 'NONE', ( #112, #199, #106, #25 ) ) ;
#102 = LOCAL_TIME ( 14, 33, 2.000000000000000000, #137 ) ;
#103 = CC_DESIGN_PERSON_AND_ORGANIZATION_ASSIGNMENT ( #9, #37, ( #121 ) ) ;
#104 = LINE ( 'NONE', #229, #58 ) ;
#105 = ADVANCED_BREP_SHAPE_REPRESENTATION ( 'Web Model 46459_46459', ( #231, #74 ), #206 ) ;
#106 = ORIENTED_EDGE ( 'NONE', *, *, #94, .T. ) ;
#107 = MECHANICAL_CONTEXT ( 'NONE', #172, 'mechanical' ) ;
#108 = ORIENTED_EDGE ( 'NONE', *, *, #56, .F. ) ;
#109 = CARTESIAN_POINT ( 'NONE',  ( 0.7500000000000000000, -12.70000000000000100, 12.70000000000000500 ) ) ;
#110 = DATE_AND_TIME ( #169, #113 ) ;
#111 = VECTOR ( 'NONE', #91, 1000.000000000000000 ) ;
#112 = ORIENTED_EDGE ( 'NONE', *, *, #98, .T. ) ;
#113 = LOCAL_TIME ( 14, 33, 2.000000000000000000, #95 ) ;
#114 = CARTESIAN_POINT ( 'NONE',  ( 0.7500000000000000000, 12.69999999999999800, 12.69999999999999900 ) ) ;
#115 = ORIENTED_EDGE ( 'NONE', *, *, #45, .F. ) ;
#116 = CARTESIAN_POINT ( 'NONE',  ( -0.7500000000000000000, 0.0000000000000000000, 0.0000000000000000000 ) ) ;
#117 =( NAMED_UNIT ( * ) PLANE_ANGLE_UNIT ( ) SI_UNIT ( $, .RADIAN. ) );
#118 =( NAMED_UNIT ( * ) SI_UNIT ( $, .STERADIAN. ) SOLID_ANGLE_UNIT ( ) );
#119 = APPROVAL ( #177, 'UNSPECIFIED' ) ;
#120 = APPROVAL_PERSON_ORGANIZATION ( #211, #184, #13 ) ;
#121 = PRODUCT_DEFINITION_FORMATION_WITH_SPECIFIED_SOURCE ( 'ANY', '', #147, .NOT_KNOWN. ) ;
#122 = CARTESIAN_POINT ( 'NONE',  ( 0.7500000000000000000, 12.69999999999999800, -12.69999999999999900 ) ) ;
#123 = VECTOR ( 'NONE', #97, 1000.000000000000000 ) ;
#124 = ORIENTED_EDGE ( 'NONE', *, *, #45, .T. ) ;
#125 = PLANE ( 'NONE',  #209 ) ;
#126 = LOCAL_TIME ( 14, 33, 2.000000000000000000, #78 ) ;
#127 = CARTESIAN_POINT ( 'NONE',  ( -0.7500000000000000000, 12.69999999999999800, 12.69999999999999900 ) ) ;
#128 = VECTOR ( 'NONE', #64, 1000.000000000000000 ) ;
#129 = EDGE_CURVE ( 'NONE', #156, #139, #6, .T. ) ;
#130 = PRODUCT_DEFINITION_SHAPE ( 'NONE', 'NONE',  #59 ) ;
#131 = CC_DESIGN_PERSON_AND_ORGANIZATION_ASSIGNMENT ( #217, #35, ( #121 ) ) ;
#132 = CALENDAR_DATE ( 2018, 15, 3 ) ;
#133 = CARTESIAN_POINT ( 'NONE',  ( 0.7500000000000000000, 12.69999999999999800, 12.69999999999999900 ) ) ;
#134 = ORIENTED_EDGE ( 'NONE', *, *, #4, .F. ) ;
#135 = EDGE_CURVE ( 'NONE', #180, #16, #207, .T. ) ;
#136 = DIRECTION ( 'NONE',  ( 1.000000000000000000, 0.0000000000000000000, 0.0000000000000000000 ) ) ;
#137 = COORDINATED_UNIVERSAL_TIME_OFFSET ( 5, 0, .BEHIND. ) ;
#138 = EDGE_LOOP ( 'NONE', ( #208, #57, #28, #73 ) ) ;
#139 = VERTEX_POINT ( 'NONE', #214 ) ;
#140 = APPLICATION_PROTOCOL_DEFINITION ( 'international standard', 'config_control_design', 1994, #72 ) ;
#141 = APPROVAL_DATE_TIME ( #5, #184 ) ;
#142 = VECTOR ( 'NONE', #148, 1000.000000000000000 ) ;
#143 = DIRECTION ( 'NONE',  ( 0.0000000000000000000, -0.0000000000000000000, 1.000000000000000000 ) ) ;
#144 = VERTEX_POINT ( 'NONE', #65 ) ;
#145 = APPROVAL_PERSON_ORGANIZATION ( #202, #119, #200 ) ;
#146 = ORIENTED_EDGE ( 'NONE', *, *, #4, .T. ) ;
#147 = PRODUCT ( 'Web Model 46459_46459', 'Web Model 46459_46459', '', ( #107 ) ) ;
#148 = DIRECTION ( 'NONE',  ( 0.0000000000000000000, -1.000000000000000000, 2.048885995248197400E-016 ) ) ;
#149 = SECURITY_CLASSIFICATION ( '', '', #33 ) ;
#150 =( LENGTH_UNIT ( ) NAMED_UNIT ( * ) SI_UNIT ( .MILLI., .METRE. ) );
#151 = FACE_OUTER_BOUND ( 'NONE', #193, .T. ) ;
#152 = ORIENTED_EDGE ( 'NONE', *, *, #34, .F. ) ;
#153 = CC_DESIGN_PERSON_AND_ORGANIZATION_ASSIGNMENT ( #178, #92, ( #59 ) ) ;
#154 = DATE_AND_TIME ( #219, #216 ) ;
#155 = PERSON_AND_ORGANIZATION_ROLE ( 'classification_officer' ) ;
#156 = VERTEX_POINT ( 'NONE', #195 ) ;
#157 = PRODUCT_RELATED_PRODUCT_CATEGORY ( 'detail', '', ( #147 ) ) ;
#158 = VECTOR ( 'NONE', #18, 1000.000000000000000 ) ;
#159 = CARTESIAN_POINT ( 'NONE',  ( 0.7500000000000000000, 12.69999999999999800, 12.69999999999999900 ) ) ;
#160 = APPROVAL_DATE_TIME ( #174, #119 ) ;
#161 = CC_DESIGN_APPROVAL ( #119, ( #59 ) ) ;
#162 = CARTESIAN_POINT ( 'NONE',  ( 0.7500000000000000000, -12.70000000000000100, 12.70000000000000500 ) ) ;
#163 = DIRECTION ( 'NONE',  ( -0.0000000000000000000, 1.000000000000000000, 2.048885995248197400E-016 ) ) ;
#164 = ADVANCED_FACE ( 'NONE', ( #27 ), #48, .F. ) ;
#165 = LINE ( 'NONE', #122, #63 ) ;
#166 = APPROVAL ( #201, 'UNSPECIFIED' ) ;
#167 = CARTESIAN_POINT ( 'NONE',  ( -0.7500000000000000000, 12.69999999999999800, 12.69999999999999900 ) ) ;
#168 = ADVANCED_FACE ( 'NONE', ( #151 ), #227, .F. ) ;
#169 = CALENDAR_DATE ( 2018, 15, 3 ) ;
#170 = VECTOR ( 'NONE', #80, 1000.000000000000000 ) ;
#171 = DIRECTION ( 'NONE',  ( 0.0000000000000000000, 0.0000000000000000000, -1.000000000000000000 ) ) ;
#172 = APPLICATION_CONTEXT ( 'configuration controlled 3d designs of mechanical parts and assemblies' ) ;
#173 = CARTESIAN_POINT ( 'NONE',  ( 0.7500000000000000000, 12.69999999999999800, -12.69999999999999900 ) ) ;
#174 = DATE_AND_TIME ( #187, #102 ) ;
#175 = DESIGN_CONTEXT ( 'detailed design', #72, 'design' ) ;
#176 = DIRECTION ( 'NONE',  ( 0.0000000000000000000, -1.000000000000000000, -2.048885995248197400E-016 ) ) ;
#177 = APPROVAL_STATUS ( 'not_yet_approved' ) ;
#178 = PERSON_AND_ORGANIZATION ( #188, #212 ) ;
#179 = LINE ( 'NONE', #20, #158 ) ;
#180 = VERTEX_POINT ( 'NONE', #88 ) ;
#181 = APPROVAL_STATUS ( 'not_yet_approved' ) ;
#182 = LOCAL_TIME ( 14, 33, 2.000000000000000000, #61 ) ;
#183 = CARTESIAN_POINT ( 'NONE',  ( 0.7500000000000000000, 12.69999999999999800, 12.69999999999999900 ) ) ;
#184 = APPROVAL ( #181, 'UNSPECIFIED' ) ;
#185 = ORIENTED_EDGE ( 'NONE', *, *, #194, .T. ) ;
#186 = APPROVAL_PERSON_ORGANIZATION ( #19, #166, #234 ) ;
#188 = PERSON ( 'UNSPECIFIED', 'UNSPECIFIED', 'UNSPECIFIED', ('UNSPECIFIED'), ('UNSPECIFIED'), ('UNSPECIFIED') ) ;
#187 = CALENDAR_DATE ( 2018, 15, 3 ) ;
#189 = VECTOR ( 'NONE', #51, 1000.000000000000000 ) ;
#190 = CARTESIAN_POINT ( 'NONE',  ( 0.7500000000000000000, 12.69999999999999800, 12.69999999999999900 ) ) ;
#191 = LINE ( 'NONE', #46, #89 ) ;
#192 = AXIS2_PLACEMENT_3D ( 'NONE', #210, #29, #12 ) ;
#193 = EDGE_LOOP ( 'NONE', ( #185, #134, #36, #124 ) ) ;
#194 = EDGE_CURVE ( 'NONE', #139, #180, #104, .T. ) ;
#195 = CARTESIAN_POINT ( 'NONE',  ( -0.7500000000000000000, -12.70000000000000100, 12.70000000000000500 ) ) ;
#196 = DIRECTION ( 'NONE',  ( -0.0000000000000000000, 1.000000000000000000, 2.048885995248197400E-016 ) ) ;
#197 = ORIENTED_EDGE ( 'NONE', *, *, #56, .T. ) ;
#198 = PLANE ( 'NONE',  #192 ) ;
#199 = ORIENTED_EDGE ( 'NONE', *, *, #34, .T. ) ;
#200 = APPROVAL_ROLE ( '' ) ;
#201 = APPROVAL_STATUS ( 'not_yet_approved' ) ;
#202 = PERSON_AND_ORGANIZATION ( #188, #212 ) ;
#203 = DIRECTION ( 'NONE',  ( 0.0000000000000000000, 0.0000000000000000000, -1.000000000000000000 ) ) ;
#204 = PERSON_AND_ORGANIZATION ( #188, #212 ) ;
#205 = CARTESIAN_POINT ( 'NONE',  ( 0.7500000000000000000, -12.70000000000000100, -12.70000000000000500 ) ) ;
#206 =( GEOMETRIC_REPRESENTATION_CONTEXT ( 3 ) GLOBAL_UNCERTAINTY_ASSIGNED_CONTEXT ( ( #44 ) ) GLOBAL_UNIT_ASSIGNED_CONTEXT ( ( #150, #117, #118 ) ) REPRESENTATION_CONTEXT ( 'NONE', 'WORKASPACE' ) );
#207 = LINE ( 'NONE', #167, #189 ) ;
#208 = ORIENTED_EDGE ( 'NONE', *, *, #7, .F. ) ;
#209 = AXIS2_PLACEMENT_3D ( 'NONE', #159, #39, #40 ) ;
#210 = CARTESIAN_POINT ( 'NONE',  ( 0.7500000000000000000, 0.0000000000000000000, 0.0000000000000000000 ) ) ;
#211 = PERSON_AND_ORGANIZATION ( #188, #212 ) ;
#212 = ORGANIZATION ( 'UNSPECIFIED', 'UNSPECIFIED', '' ) ;
#213 = ORIENTED_EDGE ( 'NONE', *, *, #66, .F. ) ;
#214 = CARTESIAN_POINT ( 'NONE',  ( -0.7500000000000000000, -12.70000000000000100, -12.70000000000000500 ) ) ;
#215 = DATE_TIME_ROLE ( 'classification_date' ) ;
#216 = LOCAL_TIME ( 14, 33, 2.000000000000000000, #23 ) ;
#217 = PERSON_AND_ORGANIZATION ( #188, #212 ) ;
#218 = ORIENTED_EDGE ( 'NONE', *, *, #7, .T. ) ;
#219 = CALENDAR_DATE ( 2018, 15, 3 ) ;
#220 = PLANE ( 'NONE',  #236 ) ;
#221 = AXIS2_PLACEMENT_3D ( 'NONE', #173, #68, #176 ) ;
#222 = DATE_AND_TIME ( #132, #182 ) ;
#223 = ADVANCED_FACE ( 'NONE', ( #15 ), #198, .T. ) ;
#224 = CC_DESIGN_APPROVAL ( #184, ( #121 ) ) ;
#225 = LINE ( 'NONE', #127, #142 ) ;
#226 = CLOSED_SHELL ( 'NONE', ( #22, #43, #168, #77, #223, #164 ) ) ;
#227 = PLANE ( 'NONE',  #221 ) ;
#228 = SHAPE_DEFINITION_REPRESENTATION ( #130, #105 ) ;
#229 = CARTESIAN_POINT ( 'NONE',  ( -0.7500000000000000000, 12.69999999999999800, -12.69999999999999900 ) ) ;
#230 = LINE ( 'NONE', #183, #123 ) ;
#231 = MANIFOLD_SOLID_BREP ( 'Boss-Extrude1', #226 ) ;
#232 = VECTOR ( 'NONE', #203, 1000.000000000000000 ) ;
#233 = ORIENTED_EDGE ( 'NONE', *, *, #81, .F. ) ;
#234 = APPROVAL_ROLE ( '' ) ;
#235 = VECTOR ( 'NONE', #171, 1000.000000000000000 ) ;
#236 = AXIS2_PLACEMENT_3D ( 'NONE', #114, #8, #26 ) ;
#237 = CC_DESIGN_PERSON_AND_ORGANIZATION_ASSIGNMENT ( #49, #155, ( #149 ) ) ;
ENDSEC;
END-ISO-10303-21;
