ISO-10303-21;
HEADER;
FILE_DESCRIPTION (( 'STEP AP203' ),
    '1' );
FILE_NAME ('5mm BEAMSPLITTER CUBE TS_35964.step',
    '2017-07-18T13:26:27',
    ( '' ),
    ( '' ),
    'SwSTEP 2.0',
    'SolidWorks 2016',
    '' );
FILE_SCHEMA (( 'CONFIG_CONTROL_DESIGN' ));
ENDSEC;

DATA;
#1 = APPROVAL ( #320, 'UNSPECIFIED' ) ;
#2 = APPROVAL_DATE_TIME ( #78, #215 ) ;
#3 = PRODUCT_DEFINITION_FORMATION_WITH_SPECIFIED_SOURCE ( 'ANY', '', #355, .NOT_KNOWN. ) ;
#4 = APPROVAL_PERSON_ORGANIZATION ( #80, #19, #263 ) ;
#5 = CARTESIAN_POINT ( 'NONE',  ( 2.167624834490815300E-016, 3.535533905932719100, -2.500000000000000000 ) ) ;
#6 =( LENGTH_UNIT ( ) NAMED_UNIT ( * ) SI_UNIT ( .MILLI., .METRE. ) );
#7 = CARTESIAN_POINT ( 'NONE',  ( -3.535533905932756400, 0.0000000000000000000, 2.500000000000000000 ) ) ;
#8 = FACE_OUTER_BOUND ( 'NONE', #231, .T. ) ;
#9 = DATE_AND_TIME ( #83, #149 ) ;
#10 = PRODUCT_DEFINITION_SHAPE ( 'NONE', 'NONE',  #271 ) ;
#11 = CC_DESIGN_DATE_AND_TIME_ASSIGNMENT ( #273, #148, ( #298 ) ) ;
#12 = COORDINATED_UNIVERSAL_TIME_OFFSET ( 5, 0, .BEHIND. ) ;
#13 = ORIENTED_EDGE ( 'NONE', *, *, #145, .T. ) ;
#14 = FACE_OUTER_BOUND ( 'NONE', #259, .T. ) ;
#15 = AXIS2_PLACEMENT_3D ( 'NONE', #49, #58, #60 ) ;
#16 = CC_DESIGN_APPROVAL ( #1, ( #347 ) ) ;
#17 = PERSON ( 'UNSPECIFIED', 'UNSPECIFIED', 'UNSPECIFIED', ('UNSPECIFIED'), ('UNSPECIFIED'), ('UNSPECIFIED') ) ;
#18 = ORIENTED_EDGE ( 'NONE', *, *, #245, .F. ) ;
#19 = APPROVAL ( #191, 'UNSPECIFIED' ) ;
#20 = LOCAL_TIME ( 9, 26, 27.00000000000000000, #95 ) ;
#21 = DESIGN_CONTEXT ( 'detailed design', #121, 'design' ) ;
#22 = LOCAL_TIME ( 9, 26, 27.00000000000000000, #98 ) ;
#23 = CARTESIAN_POINT ( 'NONE',  ( 2.167624834490815300E-016, 3.535533905932719100, 2.500000000000000000 ) ) ;
#24 = CC_DESIGN_PERSON_AND_ORGANIZATION_ASSIGNMENT ( #111, #117, ( #298 ) ) ;
#25 = VECTOR ( 'NONE', #112, 999.9999999999998900 ) ;
#26 = ORGANIZATION ( 'UNSPECIFIED', 'UNSPECIFIED', '' ) ;
#27 = APPROVAL_STATUS ( 'not_yet_approved' ) ;
#28 = DIRECTION ( 'NONE',  ( 1.000000000000000000, -6.123233995736766000E-017, 0.0000000000000000000 ) ) ;
#29 = PERSON_AND_ORGANIZATION_ROLE ( 'creator' ) ;
#30 = SHAPE_REPRESENTATION ( '5x5 Right Angle Prism Master', ( #106 ), #73 ) ;
#31 = DIRECTION ( 'NONE',  ( -1.000000000000000200, 0.0000000000000000000, 5.551115123125782700E-017 ) ) ;
#32 = CALENDAR_DATE ( 2017, 18, 7 ) ;
#33 = CC_DESIGN_PERSON_AND_ORGANIZATION_ASSIGNMENT ( #43, #327, ( #347 ) ) ;
#34 = DIRECTION ( 'NONE',  ( -0.7071067811865512400, -0.7071067811865439100, 0.0000000000000000000 ) ) ;
#35 = SHAPE_REPRESENTATION ( '5mm BEAMSPLITTER CUBE TS_35964', ( #240, #154, #168 ), #192 ) ;
#36 = LINE ( 'NONE', #281, #212 ) ;
#37 = CC_DESIGN_APPROVAL ( #19, ( #3 ) ) ;
#38 = VECTOR ( 'NONE', #103, 1000.000000000000000 ) ;
#39 = APPROVAL_PERSON_ORGANIZATION ( #111, #341, #261 ) ;
#40 = SECURITY_CLASSIFICATION_LEVEL ( 'unclassified' ) ;
#41 = APPROVAL_DATE_TIME ( #113, #141 ) ;
#42 = APPROVAL_STATUS ( 'not_yet_approved' ) ;
#43 = PERSON_AND_ORGANIZATION ( #17, #26 ) ;
#44 = PRODUCT ( '5x5 Right Angle Prism Master', '5x5 Right Angle Prism Master', '', ( #253 ) ) ;
#45 = VECTOR ( 'NONE', #302, 1000.000000000000000 ) ;
#46 = CALENDAR_DATE ( 2017, 18, 7 ) ;
#47 = CARTESIAN_POINT ( 'NONE',  ( 3.535533905932756400, -4.329780281177489400E-016, 2.500000000000000000 ) ) ;
#48 = APPROVAL_PERSON_ORGANIZATION ( #119, #141, #234 ) ;
#49 = CARTESIAN_POINT ( 'NONE',  ( 0.0000000000000000000, 0.0000000000000000000, 2.500000000000000000 ) ) ;
#50 = ORIENTED_EDGE ( 'NONE', *, *, #130, .F. ) ;
#51 = COORDINATED_UNIVERSAL_TIME_OFFSET ( 5, 0, .BEHIND. ) ;
#52 = DIRECTION ( 'NONE',  ( 0.0000000000000000000, 0.0000000000000000000, 1.000000000000000000 ) ) ;
#53 = AXIS2_PLACEMENT_3D ( 'NONE', #301, #136, #152 ) ;
#54 = CC_DESIGN_PERSON_AND_ORGANIZATION_ASSIGNMENT ( #340, #343, ( #347 ) ) ;
#55 = CARTESIAN_POINT ( 'NONE',  ( -3.535533905932756400, 0.0000000000000000000, 2.500000000000000000 ) ) ;
#56 = CC_DESIGN_PERSON_AND_ORGANIZATION_ASSIGNMENT ( #283, #348, ( #3 ) ) ;
#57 = LOCAL_TIME ( 9, 26, 27.00000000000000000, #124 ) ;
#58 = DIRECTION ( 'NONE',  ( 0.0000000000000000000, 0.0000000000000000000, 1.000000000000000000 ) ) ;
#59 = VERTEX_POINT ( 'NONE', #55 ) ;
#60 = DIRECTION ( 'NONE',  ( 1.000000000000000000, 0.0000000000000000000, -0.0000000000000000000 ) ) ;
#61 = COORDINATED_UNIVERSAL_TIME_OFFSET ( 5, 0, .BEHIND. ) ;
#62 = LINE ( 'NONE', #208, #38 ) ;
#63 = CARTESIAN_POINT ( 'NONE',  ( -3.535533905932756400, 0.0000000000000000000, -2.500000000000000000 ) ) ;
#64 = LOCAL_TIME ( 9, 26, 27.00000000000000000, #129 ) ;
#65 = CARTESIAN_POINT ( 'NONE',  ( 3.535533905932756400, -4.329780281177489400E-016, 2.500000000000000000 ) ) ;
#66 = DIRECTION ( 'NONE',  ( 1.000000000000000000, 0.0000000000000000000, 0.0000000000000000000 ) ) ;
#67 = CONTEXT_DEPENDENT_SHAPE_REPRESENTATION ( #295, #86 ) ;
#68 = VERTEX_POINT ( 'NONE', #23 ) ;
#69 = DATE_AND_TIME ( #134, #209 ) ;
#70 = CALENDAR_DATE ( 2017, 18, 7 ) ;
#71 = APPLICATION_PROTOCOL_DEFINITION ( 'international standard', 'config_control_design', 1994, #144 ) ;
#72 = ADVANCED_FACE ( 'NONE', ( #169 ), #213, .F. ) ;
#73 =( GEOMETRIC_REPRESENTATION_CONTEXT ( 3 ) GLOBAL_UNCERTAINTY_ASSIGNED_CONTEXT ( ( #260 ) ) GLOBAL_UNIT_ASSIGNED_CONTEXT ( ( #316, #210, #308 ) ) REPRESENTATION_CONTEXT ( 'NONE', 'WORKASPACE' ) );
#74 = FACE_OUTER_BOUND ( 'NONE', #85, .T. ) ;
#75 = SECURITY_CLASSIFICATION ( '', '', #99 ) ;
#76 = PERSON ( 'NAUO-PER1', 'UNSPECIFIED', 'UNSPECIFIED', ('UNSPECIFIED'), ('UNSPECIFIED'), ('UNSPECIFIED') ) ;
#77 = APPLICATION_CONTEXT ( 'configuration controlled 3d designs of mechanical parts and assemblies' ) ;
#78 = DATE_AND_TIME ( #140, #214 ) ;
#79 = CC_DESIGN_PERSON_AND_ORGANIZATION_ASSIGNMENT ( #196, #202, ( #3 ) ) ;
#80 = PERSON_AND_ORGANIZATION ( #17, #26 ) ;
#81 = VERTEX_POINT ( 'NONE', #5 ) ;
#82 = VECTOR ( 'NONE', #34, 999.9999999999998900 ) ;
#83 = CALENDAR_DATE ( 2017, 18, 7 ) ;
#84 = DIRECTION ( 'NONE',  ( 0.7071067811865512400, -0.7071067811865439100, 0.0000000000000000000 ) ) ;
#85 = EDGE_LOOP ( 'NONE', ( #133, #230, #50 ) ) ;
#86 = PRODUCT_DEFINITION_SHAPE ( 'NONE', 'NONE',  #360 ) ;
#87 = PERSON_AND_ORGANIZATION ( #17, #26 ) ;
#88 = VERTEX_POINT ( 'NONE', #250 ) ;
#89 = VECTOR ( 'NONE', #159, 1000.000000000000000 ) ;
#90 = AXIS2_PLACEMENT_3D ( 'NONE', #359, #52, #226 ) ;
#91 = ITEM_DEFINED_TRANSFORMATION ( 'NONE', 'NONE', #154,  #106 ) ;
#92 = CC_DESIGN_PERSON_AND_ORGANIZATION_ASSIGNMENT ( #256, #297, ( #75 ) ) ;
#93 = APPROVAL_ROLE ( '' ) ;
#94 = SECURITY_CLASSIFICATION ( '', '', #204 ) ;
#95 = COORDINATED_UNIVERSAL_TIME_OFFSET ( 5, 0, .BEHIND. ) ;
#96 = EDGE_CURVE ( 'NONE', #68, #81, #62, .T. ) ;
#97 =( REPRESENTATION_RELATIONSHIP ('NONE','NONE', #35, #30 ) REPRESENTATION_RELATIONSHIP_WITH_TRANSFORMATION ( #356 )SHAPE_REPRESENTATION_RELATIONSHIP( ) );
#98 = COORDINATED_UNIVERSAL_TIME_OFFSET ( 5, 0, .BEHIND. ) ;
#99 = SECURITY_CLASSIFICATION_LEVEL ( 'unclassified' ) ;
#100 = PERSON ( 'NAUO-PER2', 'UNSPECIFIED', 'UNSPECIFIED', ('UNSPECIFIED'), ('UNSPECIFIED'), ('UNSPECIFIED') ) ;
#101 = APPLICATION_PROTOCOL_DEFINITION ( 'international standard', 'config_control_design', 1994, #121 ) ;
#102 = SHAPE_DEFINITION_REPRESENTATION ( #156, #30 ) ;
#103 = DIRECTION ( 'NONE',  ( -0.0000000000000000000, -0.0000000000000000000, -1.000000000000000000 ) ) ;
#104 = CARTESIAN_POINT ( 'NONE',  ( 3.535533905932756400, -4.329780281177489400E-016, 2.500000000000000000 ) ) ;
#105 = LOCAL_TIME ( 9, 26, 27.00000000000000000, #167 ) ;
#106 = AXIS2_PLACEMENT_3D ( 'NONE', #207, #314, #224 ) ;
#107 = CC_DESIGN_DATE_AND_TIME_ASSIGNMENT ( #328, #236, ( #75 ) ) ;
#108 = DIRECTION ( 'NONE',  ( -0.7071067811865439100, -0.7071067811865512400, 0.0000000000000000000 ) ) ;
#109 = FACE_OUTER_BOUND ( 'NONE', #188, .T. ) ;
#110 = CC_DESIGN_PERSON_AND_ORGANIZATION_ASSIGNMENT ( #127, #205, ( #94 ) ) ;
#111 = PERSON_AND_ORGANIZATION ( #100, #173 ) ;
#112 = DIRECTION ( 'NONE',  ( -0.7071067811865512400, -0.7071067811865439100, 0.0000000000000000000 ) ) ;
#113 = DATE_AND_TIME ( #175, #265 ) ;
#114 = EDGE_CURVE ( 'NONE', #310, #68, #284, .T. ) ;
#115 = APPROVAL_STATUS ( 'not_yet_approved' ) ;
#116 = APPROVAL_DATE_TIME ( #178, #1 ) ;
#117 = PERSON_AND_ORGANIZATION_ROLE ( 'classification_officer' ) ;
#118 = LOCAL_TIME ( 9, 26, 27.00000000000000000, #184 ) ;
#119 = PERSON_AND_ORGANIZATION ( #17, #26 ) ;
#120 = APPROVAL_PERSON_ORGANIZATION ( #190, #1, #324 ) ;
#121 = APPLICATION_CONTEXT ( 'configuration controlled 3d designs of mechanical parts and assemblies' ) ;
#122 = APPROVAL ( #27, 'UNSPECIFIED' ) ;
#123 = UNCERTAINTY_MEASURE_WITH_UNIT (LENGTH_MEASURE( 1.000000000000000100E-005 ), #6, 'distance_accuracy_value', 'NONE');
#124 = COORDINATED_UNIVERSAL_TIME_OFFSET ( 5, 0, .BEHIND. ) ;
#125 = CC_DESIGN_DATE_AND_TIME_ASSIGNMENT ( #187, #221, ( #94 ) ) ;
#126 = DIRECTION ( 'NONE',  ( -0.7071067811865512400, 0.7071067811865439100, 0.0000000000000000000 ) ) ;
#127 = PERSON_AND_ORGANIZATION ( #17, #26 ) ;
#128 = PLANE ( 'NONE',  #53 ) ;
#129 = COORDINATED_UNIVERSAL_TIME_OFFSET ( 5, 0, .BEHIND. ) ;
#130 = EDGE_CURVE ( 'NONE', #81, #219, #171, .T. ) ;
#131 = ORIENTED_EDGE ( 'NONE', *, *, #177, .F. ) ;
#132 = APPROVAL_PERSON_ORGANIZATION ( #206, #215, #289 ) ;
#133 = ORIENTED_EDGE ( 'NONE', *, *, #201, .F. ) ;
#134 = CALENDAR_DATE ( 2017, 18, 7 ) ;
#135 = LOCAL_TIME ( 9, 26, 27.00000000000000000, #211 ) ;
#136 = DIRECTION ( 'NONE',  ( 0.7071067811865439100, -0.7071067811865512400, 0.0000000000000000000 ) ) ;
#137 =( NAMED_UNIT ( * ) PLANE_ANGLE_UNIT ( ) SI_UNIT ( $, .RADIAN. ) );
#138 = AXIS2_PLACEMENT_3D ( 'NONE', #217, #275, #163 ) ;
#139 = CC_DESIGN_APPROVAL ( #122, ( #75 ) ) ;
#140 = CALENDAR_DATE ( 2017, 18, 7 ) ;
#141 = APPROVAL ( #232, 'UNSPECIFIED' ) ;
#142 = DATE_AND_TIME ( #218, #299 ) ;
#143 = ORIENTED_EDGE ( 'NONE', *, *, #222, .T. ) ;
#144 = APPLICATION_CONTEXT ( 'configuration controlled 3d designs of mechanical parts and assemblies' ) ;
#145 = EDGE_CURVE ( 'NONE', #219, #88, #172, .T. ) ;
#146 =( NAMED_UNIT ( * ) SI_UNIT ( $, .STERADIAN. ) SOLID_ANGLE_UNIT ( ) );
#147 = VECTOR ( 'NONE', #185, 1000.000000000000000 ) ;
#148 = DATE_TIME_ROLE ( 'classification_date' ) ;
#149 = LOCAL_TIME ( 9, 26, 27.00000000000000000, #228 ) ;
#150 = ORIENTED_EDGE ( 'NONE', *, *, #114, .F. ) ;
#151 = APPROVAL_DATE_TIME ( #233, #290 ) ;
#152 = DIRECTION ( 'NONE',  ( 0.7071067811865512400, 0.7071067811865439100, 0.0000000000000000000 ) ) ;
#153 = APPROVAL_DATE_TIME ( #237, #122 ) ;
#154 = AXIS2_PLACEMENT_3D ( 'NONE', #280, #220, #255 ) ;
#155 = CC_DESIGN_SECURITY_CLASSIFICATION ( #75, ( #347 ) ) ;
#156 = PRODUCT_DEFINITION_SHAPE ( 'NONE', 'NONE',  #246 ) ;
#157 = CC_DESIGN_APPROVAL ( #141, ( #94 ) ) ;
#158 = APPROVAL_PERSON_ORGANIZATION ( #243, #290, #266 ) ;
#159 = DIRECTION ( 'NONE',  ( -0.7071067811865512400, 0.7071067811865439100, 0.0000000000000000000 ) ) ;
#160 = APPROVAL_ROLE ( '' ) ;
#161 = EDGE_CURVE ( 'NONE', #310, #88, #36, .T. ) ;
#162 = APPROVAL_PERSON_ORGANIZATION ( #247, #122, #93 ) ;
#163 = DIRECTION ( 'NONE',  ( 1.000000000000000000, 0.0000000000000000000, 0.0000000000000000000 ) ) ;
#164 = DATE_TIME_ROLE ( 'classification_date' ) ;
#165 = SHAPE_DEFINITION_REPRESENTATION ( #10, #35 ) ;
#166 = PERSON_AND_ORGANIZATION_ROLE ( 'creator' ) ;
#167 = COORDINATED_UNIVERSAL_TIME_OFFSET ( 5, 0, .BEHIND. ) ;
#168 = AXIS2_PLACEMENT_3D ( 'NONE', #274, #241, #31 ) ;
#169 = FACE_OUTER_BOUND ( 'NONE', #352, .T. ) ;
#170 = PRODUCT_RELATED_PRODUCT_CATEGORY ( 'detail', '', ( #44 ) ) ;
#171 = LINE ( 'NONE', #216, #25 ) ;
#172 = LINE ( 'NONE', #63, #335 ) ;
#173 = ORGANIZATION ( 'NAUO-ORG2', 'UNSPECIFIED', 'UNSPECIFIED' ) ;
#174 = CARTESIAN_POINT ( 'NONE',  ( 2.167624834490815300E-016, 3.535533905932719100, 2.500000000000000000 ) ) ;
#175 = CALENDAR_DATE ( 2017, 18, 7 ) ;
#176 = DIRECTION ( 'NONE',  ( -1.000000000000000000, 6.123233995736766000E-017, 0.0000000000000000000 ) ) ;
#177 = EDGE_CURVE ( 'NONE', #59, #310, #238, .T. ) ;
#178 = DATE_AND_TIME ( #268, #345 ) ;
#179 = CC_DESIGN_SECURITY_CLASSIFICATION ( #94, ( #3 ) ) ;
#180 = DIRECTION ( 'NONE',  ( 6.123233995736766000E-017, 1.000000000000000000, -0.0000000000000000000 ) ) ;
#181 = DIRECTION ( 'NONE',  ( -0.0000000000000000000, -0.0000000000000000000, -1.000000000000000000 ) ) ;
#182 = ADVANCED_BREP_SHAPE_REPRESENTATION ( '', ( #332, #106 ), #73 ) ;
#183 = PLANE ( 'NONE',  #15 ) ;
#184 = COORDINATED_UNIVERSAL_TIME_OFFSET ( 5, 0, .BEHIND. ) ;
#185 = DIRECTION ( 'NONE',  ( -0.0000000000000000000, -0.0000000000000000000, -1.000000000000000000 ) ) ;
#186 = APPROVAL_STATUS ( 'not_yet_approved' ) ;
#187 = DATE_AND_TIME ( #276, #351 ) ;
#188 = EDGE_LOOP ( 'NONE', ( #13, #321, #131, #143 ) ) ;
#189 = PLANE ( 'NONE',  #346 ) ;
#190 = PERSON_AND_ORGANIZATION ( #17, #26 ) ;
#191 = APPROVAL_STATUS ( 'not_yet_approved' ) ;
#192 =( GEOMETRIC_REPRESENTATION_CONTEXT ( 3 ) GLOBAL_UNCERTAINTY_ASSIGNED_CONTEXT ( ( #123 ) ) GLOBAL_UNIT_ASSIGNED_CONTEXT ( ( #6, #137, #146 ) ) REPRESENTATION_CONTEXT ( 'NONE', 'WORKASPACE' ) );
#193 = CC_DESIGN_SECURITY_CLASSIFICATION ( #229, ( #360 ) ) ;
#194 = DATE_AND_TIME ( #70, #135 ) ;
#195 = PERSON_AND_ORGANIZATION_ROLE ( 'design_owner' ) ;
#196 = PERSON_AND_ORGANIZATION ( #17, #26 ) ;
#197 = MECHANICAL_CONTEXT ( 'NONE', #258, 'mechanical' ) ;
#198 = ORIENTED_EDGE ( 'NONE', *, *, #96, .F. ) ;
#199 = PERSON_AND_ORGANIZATION ( #17, #26 ) ;
#200 = VECTOR ( 'NONE', #126, 1000.000000000000000 ) ;
#201 = EDGE_CURVE ( 'NONE', #88, #81, #248, .T. ) ;
#202 = PERSON_AND_ORGANIZATION_ROLE ( 'design_supplier' ) ;
#203 = PRODUCT_RELATED_PRODUCT_CATEGORY ( 'detail', '', ( #355 ) ) ;
#204 = SECURITY_CLASSIFICATION_LEVEL ( 'unclassified' ) ;
#205 = PERSON_AND_ORGANIZATION_ROLE ( 'classification_officer' ) ;
#206 = PERSON_AND_ORGANIZATION ( #76, #291 ) ;
#207 = CARTESIAN_POINT ( 'NONE',  ( 0.0000000000000000000, 0.0000000000000000000, 0.0000000000000000000 ) ) ;
#208 = CARTESIAN_POINT ( 'NONE',  ( 2.167624834490815300E-016, 3.535533905932719100, 2.500000000000000000 ) ) ;
#209 = LOCAL_TIME ( 9, 26, 27.00000000000000000, #293 ) ;
#210 =( NAMED_UNIT ( * ) PLANE_ANGLE_UNIT ( ) SI_UNIT ( $, .RADIAN. ) );
#211 = COORDINATED_UNIVERSAL_TIME_OFFSET ( 5, 0, .BEHIND. ) ;
#212 = VECTOR ( 'NONE', #181, 1000.000000000000000 ) ;
#213 = PLANE ( 'NONE',  #303 ) ;
#214 = LOCAL_TIME ( 9, 26, 27.00000000000000000, #296 ) ;
#215 = APPROVAL ( #227, 'UNKNOWN' ) ;
#216 = CARTESIAN_POINT ( 'NONE',  ( 2.167624834490815300E-016, 3.535533905932719100, -2.500000000000000000 ) ) ;
#217 = CARTESIAN_POINT ( 'NONE',  ( 0.0000000000000000000, 0.0000000000000000000, 0.0000000000000000000 ) ) ;
#218 = CALENDAR_DATE ( 2017, 18, 7 ) ;
#219 = VERTEX_POINT ( 'NONE', #288 ) ;
#220 = DIRECTION ( 'NONE',  ( 0.0000000000000000000, 0.0000000000000000000, 1.000000000000000000 ) ) ;
#221 = DATE_TIME_ROLE ( 'classification_date' ) ;
#222 = EDGE_CURVE ( 'NONE', #59, #219, #225, .T. ) ;
#223 = CC_DESIGN_PERSON_AND_ORGANIZATION_ASSIGNMENT ( #338, #269, ( #44 ) ) ;
#224 = DIRECTION ( 'NONE',  ( 1.000000000000000000, 0.0000000000000000000, 0.0000000000000000000 ) ) ;
#225 = LINE ( 'NONE', #7, #147 ) ;
#226 = DIRECTION ( 'NONE',  ( 1.000000000000000000, 0.0000000000000000000, -0.0000000000000000000 ) ) ;
#227 = APPROVAL_STATUS ( 'not_yet_approved' ) ;
#228 = COORDINATED_UNIVERSAL_TIME_OFFSET ( 5, 0, .BEHIND. ) ;
#229 = SECURITY_CLASSIFICATION ( '', '', #286 ) ;
#230 = ORIENTED_EDGE ( 'NONE', *, *, #145, .F. ) ;
#231 = EDGE_LOOP ( 'NONE', ( #319, #239, #300 ) ) ;
#232 = APPROVAL_STATUS ( 'not_yet_approved' ) ;
#233 = DATE_AND_TIME ( #313, #20 ) ;
#234 = APPROVAL_ROLE ( '' ) ;
#235 = ADVANCED_FACE ( 'NONE', ( #109 ), #189, .F. ) ;
#236 = DATE_TIME_ROLE ( 'classification_date' ) ;
#237 = DATE_AND_TIME ( #318, #22 ) ;
#238 = LINE ( 'NONE', #257, #45 ) ;
#239 = ORIENTED_EDGE ( 'NONE', *, *, #245, .T. ) ;
#240 = AXIS2_PLACEMENT_3D ( 'NONE', #244, #315, #66 ) ;
#241 = DIRECTION ( 'NONE',  ( 5.551115123125782700E-017, -1.232595164407830900E-032, 1.000000000000000200 ) ) ;
#242 = CC_DESIGN_APPROVAL ( #215, ( #229 ) ) ;
#243 = PERSON_AND_ORGANIZATION ( #17, #26 ) ;
#244 = CARTESIAN_POINT ( 'NONE',  ( 0.0000000000000000000, 0.0000000000000000000, 0.0000000000000000000 ) ) ;
#245 = EDGE_CURVE ( 'NONE', #68, #59, #304, .T. ) ;
#246 = PRODUCT_DEFINITION ( 'UNKNOWN', '', #347, #21 ) ;
#247 = PERSON_AND_ORGANIZATION ( #17, #26 ) ;
#248 = LINE ( 'NONE', #312, #89 ) ;
#249 = CC_DESIGN_PERSON_AND_ORGANIZATION_ASSIGNMENT ( #323, #195, ( #355 ) ) ;
#250 = CARTESIAN_POINT ( 'NONE',  ( 3.535533905932756400, -4.329780281177489400E-016, -2.500000000000000000 ) ) ;
#251 = APPLICATION_PROTOCOL_DEFINITION ( 'international standard', 'config_control_design', 1994, #77 ) ;
#252 = ORIENTED_EDGE ( 'NONE', *, *, #222, .F. ) ;
#253 = MECHANICAL_CONTEXT ( 'NONE', #77, 'mechanical' ) ;
#254 = PERSON_AND_ORGANIZATION ( #17, #26 ) ;
#255 = DIRECTION ( 'NONE',  ( 1.000000000000000000, 0.0000000000000000000, 0.0000000000000000000 ) ) ;
#256 = PERSON_AND_ORGANIZATION ( #17, #26 ) ;
#257 = CARTESIAN_POINT ( 'NONE',  ( -3.535533905932756400, 0.0000000000000000000, 2.500000000000000000 ) ) ;
#258 = APPLICATION_CONTEXT ( 'configuration controlled 3d designs of mechanical parts and assemblies' ) ;
#259 = EDGE_LOOP ( 'NONE', ( #307, #252, #18, #339 ) ) ;
#260 = UNCERTAINTY_MEASURE_WITH_UNIT (LENGTH_MEASURE( 1.000000000000000100E-005 ), #316, 'distance_accuracy_value', 'NONE');
#261 = APPROVAL_ROLE ( '' ) ;
#262 = CC_DESIGN_DATE_AND_TIME_ASSIGNMENT ( #9, #164, ( #229 ) ) ;
#263 = APPROVAL_ROLE ( '' ) ;
#264 = APPROVAL_DATE_TIME ( #342, #341 ) ;
#265 = LOCAL_TIME ( 9, 26, 27.00000000000000000, #344 ) ;
#266 = APPROVAL_ROLE ( '' ) ;
#267 = CLOSED_SHELL ( 'NONE', ( #72, #326, #235, #325, #354 ) ) ;
#268 = CALENDAR_DATE ( 2017, 18, 7 ) ;
#269 = PERSON_AND_ORGANIZATION_ROLE ( 'design_owner' ) ;
#270 = APPROVAL ( #115, 'UNSPECIFIED' ) ;
#271 = PRODUCT_DEFINITION ( 'UNKNOWN', '', #3, #292 ) ;
#272 = SHAPE_REPRESENTATION_RELATIONSHIP ( 'NONE' , 'NONE' ,  #30, #182 ) ;
#273 = DATE_AND_TIME ( #350, #57 ) ;
#274 = CARTESIAN_POINT ( 'NONE',  ( 0.0000000000000000000, 0.0000000000000000000, 0.0000000000000000000 ) ) ;
#275 = DIRECTION ( 'NONE',  ( 0.0000000000000000000, 0.0000000000000000000, 1.000000000000000000 ) ) ;
#276 = CALENDAR_DATE ( 2017, 18, 7 ) ;
#277 = DATE_AND_TIME ( #353, #64 ) ;
#278 = PLANE ( 'NONE',  #90 ) ;
#279 = CC_DESIGN_PERSON_AND_ORGANIZATION_ASSIGNMENT ( #206, #331, ( #229 ) ) ;
#280 = CARTESIAN_POINT ( 'NONE',  ( 0.0000000000000000000, 0.0000000000000000000, 0.0000000000000000000 ) ) ;
#281 = CARTESIAN_POINT ( 'NONE',  ( 3.535533905932756400, -4.329780281177489400E-016, 2.500000000000000000 ) ) ;
#282 = DATE_TIME_ROLE ( 'creation_date' ) ;
#283 = PERSON_AND_ORGANIZATION ( #17, #26 ) ;
#284 = LINE ( 'NONE', #65, #200 ) ;
#285 = APPROVAL_DATE_TIME ( #194, #270 ) ;
#286 = SECURITY_CLASSIFICATION_LEVEL ( 'unclassified' ) ;
#287 = CC_DESIGN_APPROVAL ( #270, ( #246 ) ) ;
#288 = CARTESIAN_POINT ( 'NONE',  ( -3.535533905932756400, 0.0000000000000000000, -2.500000000000000000 ) ) ;
#289 = APPROVAL_ROLE ( '' ) ;
#290 = APPROVAL ( #42, 'UNSPECIFIED' ) ;
#291 = ORGANIZATION ( 'NAUO-ORG1', 'UNSPECIFIED', 'UNSPECIFIED' ) ;
#292 = DESIGN_CONTEXT ( 'detailed design', #144, 'design' ) ;
#293 = COORDINATED_UNIVERSAL_TIME_OFFSET ( 5, 0, .BEHIND. ) ;
#294 = APPLICATION_PROTOCOL_DEFINITION ( 'international standard', 'config_control_design', 1994, #258 ) ;
#295 =( REPRESENTATION_RELATIONSHIP ('NONE','NONE', #35, #30 ) REPRESENTATION_RELATIONSHIP_WITH_TRANSFORMATION ( #91 )SHAPE_REPRESENTATION_RELATIONSHIP( ) );
#296 = COORDINATED_UNIVERSAL_TIME_OFFSET ( 5, 0, .BEHIND. ) ;
#297 = PERSON_AND_ORGANIZATION_ROLE ( 'classification_officer' ) ;
#298 = SECURITY_CLASSIFICATION ( '', '', #40 ) ;
#299 = LOCAL_TIME ( 9, 26, 27.00000000000000000, #12 ) ;
#300 = ORIENTED_EDGE ( 'NONE', *, *, #177, .T. ) ;
#301 = CARTESIAN_POINT ( 'NONE',  ( 2.167624834490815300E-016, 3.535533905932719100, 2.500000000000000000 ) ) ;
#302 = DIRECTION ( 'NONE',  ( 1.000000000000000000, -6.123233995736766000E-017, 0.0000000000000000000 ) ) ;
#303 = AXIS2_PLACEMENT_3D ( 'NONE', #104, #108, #84 ) ;
#304 = LINE ( 'NONE', #174, #82 ) ;
#305 = CC_DESIGN_PERSON_AND_ORGANIZATION_ASSIGNMENT ( #199, #166, ( #246 ) ) ;
#306 = CARTESIAN_POINT ( 'NONE',  ( -3.535533905932756400, 0.0000000000000000000, 2.500000000000000000 ) ) ;
#307 = ORIENTED_EDGE ( 'NONE', *, *, #130, .T. ) ;
#308 =( NAMED_UNIT ( * ) SI_UNIT ( $, .STERADIAN. ) SOLID_ANGLE_UNIT ( ) );
#309 = ORIENTED_EDGE ( 'NONE', *, *, #161, .T. ) ;
#310 = VERTEX_POINT ( 'NONE', #47 ) ;
#311 = CC_DESIGN_APPROVAL ( #290, ( #271 ) ) ;
#312 = CARTESIAN_POINT ( 'NONE',  ( 3.535533905932756400, -4.329780281177489400E-016, -2.500000000000000000 ) ) ;
#313 = CALENDAR_DATE ( 2017, 18, 7 ) ;
#314 = DIRECTION ( 'NONE',  ( 0.0000000000000000000, 0.0000000000000000000, 1.000000000000000000 ) ) ;
#315 = DIRECTION ( 'NONE',  ( 0.0000000000000000000, 0.0000000000000000000, 1.000000000000000000 ) ) ;
#316 =( LENGTH_UNIT ( ) NAMED_UNIT ( * ) SI_UNIT ( .MILLI., .METRE. ) );
#317 = DATE_TIME_ROLE ( 'creation_date' ) ;
#318 = CALENDAR_DATE ( 2017, 18, 7 ) ;
#319 = ORIENTED_EDGE ( 'NONE', *, *, #114, .T. ) ;
#320 = APPROVAL_STATUS ( 'not_yet_approved' ) ;
#321 = ORIENTED_EDGE ( 'NONE', *, *, #161, .F. ) ;
#322 = CC_DESIGN_SECURITY_CLASSIFICATION ( #298, ( #361 ) ) ;
#323 = PERSON_AND_ORGANIZATION ( #17, #26 ) ;
#324 = APPROVAL_ROLE ( '' ) ;
#325 = ADVANCED_FACE ( 'NONE', ( #8 ), #183, .T. ) ;
#326 = ADVANCED_FACE ( 'NONE', ( #14 ), #128, .F. ) ;
#327 = PERSON_AND_ORGANIZATION_ROLE ( 'creator' ) ;
#328 = DATE_AND_TIME ( #32, #105 ) ;
#329 = CC_DESIGN_DATE_AND_TIME_ASSIGNMENT ( #277, #317, ( #246 ) ) ;
#330 = ORIENTED_EDGE ( 'NONE', *, *, #201, .T. ) ;
#331 = PERSON_AND_ORGANIZATION_ROLE ( 'classification_officer' ) ;
#332 = MANIFOLD_SOLID_BREP ( 'Boss-Extrude1', #267 ) ;
#333 = CC_DESIGN_PERSON_AND_ORGANIZATION_ASSIGNMENT ( #87, #29, ( #271 ) ) ;
#334 = PRODUCT_DEFINITION_SHAPE ( 'NONE', 'NONE',  #361 ) ;
#335 = VECTOR ( 'NONE', #28, 1000.000000000000000 ) ;
#336 = CONTEXT_DEPENDENT_SHAPE_REPRESENTATION ( #97, #334 ) ;
#337 = APPROVAL_PERSON_ORGANIZATION ( #254, #270, #160 ) ;
#338 = PERSON_AND_ORGANIZATION ( #17, #26 ) ;
#339 = ORIENTED_EDGE ( 'NONE', *, *, #96, .T. ) ;
#340 = PERSON_AND_ORGANIZATION ( #17, #26 ) ;
#341 = APPROVAL ( #186, 'UNKNOWN' ) ;
#342 = DATE_AND_TIME ( #46, #118 ) ;
#343 = PERSON_AND_ORGANIZATION_ROLE ( 'design_supplier' ) ;
#344 = COORDINATED_UNIVERSAL_TIME_OFFSET ( 5, 0, .BEHIND. ) ;
#345 = LOCAL_TIME ( 9, 26, 27.00000000000000000, #51 ) ;
#346 = AXIS2_PLACEMENT_3D ( 'NONE', #306, #180, #176 ) ;
#347 = PRODUCT_DEFINITION_FORMATION_WITH_SPECIFIED_SOURCE ( 'ANY', '', #44, .NOT_KNOWN. ) ;
#348 = PERSON_AND_ORGANIZATION_ROLE ( 'creator' ) ;
#349 = CC_DESIGN_DATE_AND_TIME_ASSIGNMENT ( #142, #282, ( #271 ) ) ;
#350 = CALENDAR_DATE ( 2017, 18, 7 ) ;
#351 = LOCAL_TIME ( 9, 26, 27.00000000000000000, #61 ) ;
#352 = EDGE_LOOP ( 'NONE', ( #330, #198, #150, #309 ) ) ;
#353 = CALENDAR_DATE ( 2017, 18, 7 ) ;
#354 = ADVANCED_FACE ( 'NONE', ( #74 ), #278, .F. ) ;
#355 = PRODUCT ( '5mm BEAMSPLITTER CUBE TS_35964', '5mm BEAMSPLITTER CUBE TS_35964', '', ( #197 ) ) ;
#356 = ITEM_DEFINED_TRANSFORMATION ( 'NONE', 'NONE', #168,  #106 ) ;
#357 = CC_DESIGN_APPROVAL ( #341, ( #298 ) ) ;
#358 = APPROVAL_DATE_TIME ( #69, #19 ) ;
#359 = CARTESIAN_POINT ( 'NONE',  ( 0.0000000000000000000, 0.0000000000000000000, -2.500000000000000000 ) ) ;
#360 = NEXT_ASSEMBLY_USAGE_OCCURRENCE ( 'NAUO1', ' ', ' ', #271, #246, $ ) ;
#361 = NEXT_ASSEMBLY_USAGE_OCCURRENCE ( 'NAUO2', ' ', ' ', #271, #246, $ ) ;
ENDSEC;
END-ISO-10303-21;
