ISO-10303-21;
HEADER;
FILE_DESCRIPTION (( 'STEP AP203' ),
    '1' );
FILE_NAME ('4316-E0W.STEP',
    '2008-10-13T14:48:39',
    ( 'Admin' ),
    ( 'Thorlabs, Inc.' ),
    'SwSTEP 2.0',
    'SolidWorks 2007',
    '' );
FILE_SCHEMA (( 'CONFIG_CONTROL_DESIGN' ));
ENDSEC;

DATA;
#1 = COORDINATED_UNIVERSAL_TIME_OFFSET ( 5, 0, .BEHIND. ) ;
#2 = CC_DESIGN_APPROVAL ( #100, ( #112 ) ) ;
#3 = CARTESIAN_POINT ( 'NONE',  ( 0.0000000000000000000, 0.0000000000000000000, -0.8798748359441224100 ) ) ;
#4 = DIRECTION ( 'NONE',  ( 0.0000000000000000000, 0.0000000000000000000, 1.000000000000000000 ) ) ;
#5 = DATE_AND_TIME ( #6, #9 ) ;
#6 = CALENDAR_DATE ( 2008, 13, 10 ) ;
#7 = DIRECTION ( 'NONE',  ( 1.000000000000000000, 0.0000000000000000000, 0.0000000000000000000 ) ) ;
#8 = APPROVAL_DATE_TIME ( #5, #100 ) ;
#9 = LOCAL_TIME ( 10, 48, 39.00000000000000000, #1 ) ;
#10 = AXIS2_PLACEMENT_3D ( 'NONE', #3, #4, #7 ) ;
#11 = SPHERICAL_SURFACE ( 'NONE', #58, 91.70000000000000300 ) ;
#12 = DIRECTION ( 'NONE',  ( 1.000000000000000000, 0.0000000000000000000, 0.0000000000000000000 ) ) ;
#13 = DIRECTION ( 'NONE',  ( 1.000000000000000000, 0.0000000000000000000, 0.0000000000000000000 ) ) ;
#14 = DIRECTION ( 'NONE',  ( 0.0000000000000000000, 0.0000000000000000000, 1.000000000000000000 ) ) ;
#15 = AXIS2_PLACEMENT_3D ( 'NONE', #31, #14, #13 ) ;
#16 = VECTOR ( 'NONE', #72, 1000.000000000000000 ) ;
#17 = CARTESIAN_POINT ( 'NONE',  ( 6.349999999999999600, 0.0000000000000000000, 1.100000000000000100 ) ) ;
#18 = LINE ( 'NONE', #17, #16 ) ;
#19 = CIRCLE ( 'NONE', #23, 91.70000000000000300 ) ;
#20 = DIRECTION ( 'NONE',  ( -1.224646799147353200E-016, -1.000000000000000000, 0.0000000000000000000 ) ) ;
#21 = DIRECTION ( 'NONE',  ( -1.000000000000000000, 1.224646799147353200E-016, 0.0000000000000000000 ) ) ;
#22 = CARTESIAN_POINT ( 'NONE',  ( 0.0000000000000000000, 0.0000000000000000000, -90.59999999999999400 ) ) ;
#23 = AXIS2_PLACEMENT_3D ( 'NONE', #22, #21, #70 ) ;
#24 = CIRCLE ( 'NONE', #85, 6.349999999999999600 ) ;
#25 = CIRCLE ( 'NONE', #61, 6.349999999999999600 ) ;
#26 = CARTESIAN_POINT ( 'NONE',  ( 0.0000000000000000000, 0.0000000000000000000, 0.8798748359441083100 ) ) ;
#27 = AXIS2_PLACEMENT_3D ( 'NONE', #52, #64, #63 ) ;
#28 = CIRCLE ( 'NONE', #27, 6.349999999999999600 ) ;
#29 = LINE ( 'NONE', #62, #69 ) ;
#30 = FACE_OUTER_BOUND ( 'NONE', #206, .T. ) ;
#31 = CARTESIAN_POINT ( 'NONE',  ( 0.0000000000000000000, 0.0000000000000000000, 0.0000000000000000000 ) ) ;
#32 = CC_DESIGN_SECURITY_CLASSIFICATION ( #112, ( #136 ) ) ;
#33 = ADVANCED_BREP_SHAPE_REPRESENTATION ( '4316-E0W', ( #184, #15 ), #34 ) ;
#34 =( GEOMETRIC_REPRESENTATION_CONTEXT ( 3 ) GLOBAL_UNCERTAINTY_ASSIGNED_CONTEXT ( ( #40 ) ) GLOBAL_UNIT_ASSIGNED_CONTEXT ( ( #73, #42, #41 ) ) REPRESENTATION_CONTEXT ( 'NONE', 'WORKASPACE' ) );
#35 = CARTESIAN_POINT ( 'NONE',  ( -7.776507174585709900E-016, -6.350000000000013900, 0.8798748359441083100 ) ) ;
#36 = DIRECTION ( 'NONE',  ( 1.000000000000000000, 0.0000000000000000000, 0.0000000000000000000 ) ) ;
#37 = DIRECTION ( 'NONE',  ( 0.0000000000000000000, 0.0000000000000000000, 1.000000000000000000 ) ) ;
#38 = CARTESIAN_POINT ( 'NONE',  ( -7.776507174585626100E-016, -6.349999999999946400, -0.8798748359441223000 ) ) ;
#39 = CARTESIAN_POINT ( 'NONE',  ( 0.0000000000000000000, 6.350000000000013900, 0.8798748359441083100 ) ) ;
#40 = UNCERTAINTY_MEASURE_WITH_UNIT (LENGTH_MEASURE( 1.000000000000000100E-005 ), #73, 'distance_accuracy_value', 'NONE');
#41 =( NAMED_UNIT ( * ) SI_UNIT ( $, .STERADIAN. ) SOLID_ANGLE_UNIT ( ) );
#42 =( NAMED_UNIT ( * ) PLANE_ANGLE_UNIT ( ) SI_UNIT ( $, .RADIAN. ) );
#43 = CARTESIAN_POINT ( 'NONE',  ( -6.349999999999999600, 7.776507174585692200E-016, 0.8798748359441083100 ) ) ;
#44 = AXIS2_PLACEMENT_3D ( 'NONE', #82, #84, #20 ) ;
#45 = CIRCLE ( 'NONE', #44, 91.70000000000000300 ) ;
#46 = CARTESIAN_POINT ( 'NONE',  ( 0.0000000000000000000, 0.0000000000000000000, 0.8798748359441083100 ) ) ;
#47 = AXIS2_PLACEMENT_3D ( 'NONE', #46, #37, #36 ) ;
#48 = CIRCLE ( 'NONE', #47, 6.349999999999999600 ) ;
#49 = DIRECTION ( 'NONE',  ( 1.000000000000000000, 0.0000000000000000000, 0.0000000000000000000 ) ) ;
#50 = DIRECTION ( 'NONE',  ( 0.0000000000000000000, 0.0000000000000000000, 1.000000000000000000 ) ) ;
#51 = CARTESIAN_POINT ( 'NONE',  ( 0.0000000000000000000, 0.0000000000000000000, 0.8798748359441083100 ) ) ;
#52 = CARTESIAN_POINT ( 'NONE',  ( 0.0000000000000000000, 0.0000000000000000000, 0.8798748359441083100 ) ) ;
#53 = CIRCLE ( 'NONE', #77, 6.349999999999999600 ) ;
#54 = DIRECTION ( 'NONE',  ( 1.000000000000000000, 0.0000000000000000000, 0.0000000000000000000 ) ) ;
#55 = DIRECTION ( 'NONE',  ( 0.0000000000000000000, 0.0000000000000000000, 1.000000000000000000 ) ) ;
#56 = CARTESIAN_POINT ( 'NONE',  ( 0.0000000000000000000, 0.0000000000000000000, 1.100000000000000100 ) ) ;
#57 = AXIS2_PLACEMENT_3D ( 'NONE', #56, #55, #54 ) ;
#58 = AXIS2_PLACEMENT_3D ( 'NONE', #86, #81, #80 ) ;
#59 = AXIS2_PLACEMENT_3D ( 'NONE', #71, #79, #78 ) ;
#60 = CIRCLE ( 'NONE', #59, 6.349999999999999600 ) ;
#61 = AXIS2_PLACEMENT_3D ( 'NONE', #51, #50, #49 ) ;
#62 = CARTESIAN_POINT ( 'NONE',  ( -6.349999999999999600, 7.776507174585692200E-016, 1.100000000000000100 ) ) ;
#63 = DIRECTION ( 'NONE',  ( 1.000000000000000000, 0.0000000000000000000, 0.0000000000000000000 ) ) ;
#64 = DIRECTION ( 'NONE',  ( 0.0000000000000000000, 0.0000000000000000000, 1.000000000000000000 ) ) ;
#65 = CARTESIAN_POINT ( 'NONE',  ( -6.349999999999999600, 7.776507174585692200E-016, -0.8798748359441224100 ) ) ;
#66 = CYLINDRICAL_SURFACE ( 'NONE', #57, 6.349999999999999600 ) ;
#67 = FACE_OUTER_BOUND ( 'NONE', #223, .T. ) ;
#68 = DIRECTION ( 'NONE',  ( 0.0000000000000000000, 0.0000000000000000000, 1.000000000000000000 ) ) ;
#69 = VECTOR ( 'NONE', #68, 1000.000000000000000 ) ;
#70 = DIRECTION ( 'NONE',  ( -1.224646799147353200E-016, -1.000000000000000000, 0.0000000000000000000 ) ) ;
#71 = CARTESIAN_POINT ( 'NONE',  ( 0.0000000000000000000, 0.0000000000000000000, -0.8798748359441224100 ) ) ;
#72 = DIRECTION ( 'NONE',  ( 0.0000000000000000000, 0.0000000000000000000, 1.000000000000000000 ) ) ;
#73 =( LENGTH_UNIT ( ) NAMED_UNIT ( * ) SI_UNIT ( .MILLI., .METRE. ) );
#74 = DIRECTION ( 'NONE',  ( 1.000000000000000000, 0.0000000000000000000, 0.0000000000000000000 ) ) ;
#75 = DIRECTION ( 'NONE',  ( 0.0000000000000000000, 0.0000000000000000000, 1.000000000000000000 ) ) ;
#76 = CARTESIAN_POINT ( 'NONE',  ( 0.0000000000000000000, 0.0000000000000000000, -0.8798748359441224100 ) ) ;
#77 = AXIS2_PLACEMENT_3D ( 'NONE', #76, #75, #74 ) ;
#78 = DIRECTION ( 'NONE',  ( 1.000000000000000000, 0.0000000000000000000, 0.0000000000000000000 ) ) ;
#79 = DIRECTION ( 'NONE',  ( 0.0000000000000000000, 0.0000000000000000000, 1.000000000000000000 ) ) ;
#80 = DIRECTION ( 'NONE',  ( 0.0000000000000000000, 1.000000000000000000, 0.0000000000000000000 ) ) ;
#81 = DIRECTION ( 'NONE',  ( -1.000000000000000000, 0.0000000000000000000, 0.0000000000000000000 ) ) ;
#82 = CARTESIAN_POINT ( 'NONE',  ( 0.0000000000000000000, 0.0000000000000000000, 90.59999999999999400 ) ) ;
#83 = CARTESIAN_POINT ( 'NONE',  ( 0.0000000000000000000, 5.615005574090614300E-015, 1.100000000000003600 ) ) ;
#84 = DIRECTION ( 'NONE',  ( -1.000000000000000000, 1.224646799147353200E-016, 0.0000000000000000000 ) ) ;
#85 = AXIS2_PLACEMENT_3D ( 'NONE', #26, #88, #12 ) ;
#86 = CARTESIAN_POINT ( 'NONE',  ( 0.0000000000000000000, 0.0000000000000000000, -90.59999999999999400 ) ) ;
#87 = CARTESIAN_POINT ( 'NONE',  ( 6.349999999999999600, 0.0000000000000000000, 0.8798748359441083100 ) ) ;
#88 = DIRECTION ( 'NONE',  ( 0.0000000000000000000, 0.0000000000000000000, 1.000000000000000000 ) ) ;
#89 = DATE_AND_TIME ( #124, #125 ) ;
#90 = APPROVAL_PERSON_ORGANIZATION ( #152, #92, #91 ) ;
#91 = APPROVAL_ROLE ( '' ) ;
#92 = APPROVAL ( #93, 'UNSPECIFIED' ) ;
#93 = APPROVAL_STATUS ( 'not_yet_approved' ) ;
#94 = PRODUCT_DEFINITION ( 'UNKNOWN', '', #136, #95 ) ;
#95 = DESIGN_CONTEXT ( 'detailed design', #154, 'design' ) ;
#96 = PERSON_AND_ORGANIZATION_ROLE ( 'design_owner' ) ;
#97 = ORGANIZATION ( 'UNSPECIFIED', 'UNSPECIFIED', '' ) ;
#98 = APPROVAL_PERSON_ORGANIZATION ( #102, #100, #99 ) ;
#99 = APPROVAL_ROLE ( '' ) ;
#100 = APPROVAL ( #101, 'UNSPECIFIED' ) ;
#101 = APPROVAL_STATUS ( 'not_yet_approved' ) ;
#102 = PERSON_AND_ORGANIZATION ( #115, #97 ) ;
#103 = CC_DESIGN_DATE_AND_TIME_ASSIGNMENT ( #105, #104, ( #112 ) ) ;
#104 = DATE_TIME_ROLE ( 'classification_date' ) ;
#105 = DATE_AND_TIME ( #106, #107 ) ;
#106 = CALENDAR_DATE ( 2008, 13, 10 ) ;
#107 = LOCAL_TIME ( 10, 48, 39.00000000000000000, #108 ) ;
#108 = COORDINATED_UNIVERSAL_TIME_OFFSET ( 5, 0, .BEHIND. ) ;
#109 = CC_DESIGN_PERSON_AND_ORGANIZATION_ASSIGNMENT ( #111, #110, ( #112 ) ) ;
#110 = PERSON_AND_ORGANIZATION_ROLE ( 'classification_officer' ) ;
#111 = PERSON_AND_ORGANIZATION ( #115, #97 ) ;
#112 = SECURITY_CLASSIFICATION ( '', '', #113 ) ;
#113 = SECURITY_CLASSIFICATION_LEVEL ( 'unclassified' ) ;
#114 = CC_DESIGN_PERSON_AND_ORGANIZATION_ASSIGNMENT ( #119, #96, ( #155 ) ) ;
#115 = PERSON ( 'UNSPECIFIED', 'UNSPECIFIED', 'UNSPECIFIED', ('UNSPECIFIED'), ('UNSPECIFIED'), ('UNSPECIFIED') ) ;
#116 = MECHANICAL_CONTEXT ( 'NONE', #118, 'mechanical' ) ;
#117 = APPLICATION_PROTOCOL_DEFINITION ( 'international standard', 'config_control_design', 1994, #118 ) ;
#118 = APPLICATION_CONTEXT ( 'configuration controlled 3d designs of mechanical parts and assemblies' ) ;
#119 = PERSON_AND_ORGANIZATION ( #115, #97 ) ;
#120 = PERSON_AND_ORGANIZATION_ROLE ( 'creator' ) ;
#121 = PERSON_AND_ORGANIZATION ( #115, #97 ) ;
#122 = CC_DESIGN_APPROVAL ( #92, ( #94 ) ) ;
#123 = APPROVAL_DATE_TIME ( #89, #92 ) ;
#124 = CALENDAR_DATE ( 2008, 13, 10 ) ;
#125 = LOCAL_TIME ( 10, 48, 39.00000000000000000, #126 ) ;
#126 = COORDINATED_UNIVERSAL_TIME_OFFSET ( 5, 0, .BEHIND. ) ;
#127 = DATE_AND_TIME ( #128, #129 ) ;
#128 = CALENDAR_DATE ( 2008, 13, 10 ) ;
#129 = LOCAL_TIME ( 10, 48, 39.00000000000000000, #130 ) ;
#130 = COORDINATED_UNIVERSAL_TIME_OFFSET ( 5, 0, .BEHIND. ) ;
#131 = APPROVAL_PERSON_ORGANIZATION ( #135, #133, #132 ) ;
#132 = APPROVAL_ROLE ( '' ) ;
#133 = APPROVAL ( #134, 'UNSPECIFIED' ) ;
#134 = APPROVAL_STATUS ( 'not_yet_approved' ) ;
#135 = PERSON_AND_ORGANIZATION ( #115, #97 ) ;
#136 = PRODUCT_DEFINITION_FORMATION_WITH_SPECIFIED_SOURCE ( 'ANY', '', #155, .NOT_KNOWN. ) ;
#137 = CC_DESIGN_DATE_AND_TIME_ASSIGNMENT ( #139, #138, ( #94 ) ) ;
#138 = DATE_TIME_ROLE ( 'creation_date' ) ;
#139 = DATE_AND_TIME ( #140, #141 ) ;
#140 = CALENDAR_DATE ( 2008, 13, 10 ) ;
#141 = LOCAL_TIME ( 10, 48, 39.00000000000000000, #142 ) ;
#142 = COORDINATED_UNIVERSAL_TIME_OFFSET ( 5, 0, .BEHIND. ) ;
#143 = CC_DESIGN_PERSON_AND_ORGANIZATION_ASSIGNMENT ( #121, #120, ( #94 ) ) ;
#144 = CC_DESIGN_PERSON_AND_ORGANIZATION_ASSIGNMENT ( #146, #145, ( #136 ) ) ;
#145 = PERSON_AND_ORGANIZATION_ROLE ( 'design_supplier' ) ;
#146 = PERSON_AND_ORGANIZATION ( #115, #97 ) ;
#147 = CC_DESIGN_PERSON_AND_ORGANIZATION_ASSIGNMENT ( #149, #148, ( #136 ) ) ;
#148 = PERSON_AND_ORGANIZATION_ROLE ( 'creator' ) ;
#149 = PERSON_AND_ORGANIZATION ( #115, #97 ) ;
#150 = CC_DESIGN_APPROVAL ( #133, ( #136 ) ) ;
#151 = APPROVAL_DATE_TIME ( #127, #133 ) ;
#152 = PERSON_AND_ORGANIZATION ( #115, #97 ) ;
#153 = APPLICATION_PROTOCOL_DEFINITION ( 'international standard', 'config_control_design', 1994, #154 ) ;
#154 = APPLICATION_CONTEXT ( 'configuration controlled 3d designs of mechanical parts and assemblies' ) ;
#155 = PRODUCT ( '4316-E0W', '4316-E0W', '', ( #116 ) ) ;
#156 = SHAPE_DEFINITION_REPRESENTATION ( #157, #33 ) ;
#157 = PRODUCT_DEFINITION_SHAPE ( 'NONE', 'NONE',  #94 ) ;
#158 = PRODUCT_RELATED_PRODUCT_CATEGORY ( 'detail', '', ( #155 ) ) ;
#159 = CIRCLE ( 'NONE', #10, 6.349999999999999600 ) ;
#160 = ADVANCED_FACE ( 'NONE', ( #254 ), #255, .T. ) ;
#161 = ORIENTED_EDGE ( 'NONE', *, *, #222, .F. ) ;
#162 = EDGE_CURVE ( 'NONE', #197, #208, #259, .T. ) ;
#163 = ORIENTED_EDGE ( 'NONE', *, *, #201, .T. ) ;
#164 = ORIENTED_EDGE ( 'NONE', *, *, #218, .F. ) ;
#165 = EDGE_LOOP ( 'NONE', ( #161, #163, #174, #172, #170, #164 ) ) ;
#166 = ORIENTED_EDGE ( 'NONE', *, *, #205, .F. ) ;
#167 = CLOSED_SHELL ( 'NONE', ( #186, #224, #199, #160, #176, #169 ) ) ;
#168 = ORIENTED_EDGE ( 'NONE', *, *, #171, .F. ) ;
#169 = ADVANCED_FACE ( 'NONE', ( #239 ), #252, .T. ) ;
#170 = ORIENTED_EDGE ( 'NONE', *, *, #196, .F. ) ;
#171 = EDGE_CURVE ( 'NONE', #203, #179, #236, .T. ) ;
#172 = ORIENTED_EDGE ( 'NONE', *, *, #214, .T. ) ;
#173 = EDGE_LOOP ( 'NONE', ( #166, #177, #175, #168 ) ) ;
#174 = ORIENTED_EDGE ( 'NONE', *, *, #171, .T. ) ;
#175 = ORIENTED_EDGE ( 'NONE', *, *, #225, .F. ) ;
#176 = ADVANCED_FACE ( 'NONE', ( #237 ), #229, .T. ) ;
#177 = ORIENTED_EDGE ( 'NONE', *, *, #181, .T. ) ;
#178 = ORIENTED_EDGE ( 'NONE', *, *, #225, .T. ) ;
#179 = VERTEX_POINT ( 'NONE', #230 ) ;
#180 = ORIENTED_EDGE ( 'NONE', *, *, #181, .F. ) ;
#181 = EDGE_CURVE ( 'NONE', #182, #183, #246, .T. ) ;
#182 = VERTEX_POINT ( 'NONE', #267 ) ;
#183 = VERTEX_POINT ( 'NONE', #264 ) ;
#184 = MANIFOLD_SOLID_BREP ( 'NONE', #167 ) ;
#185 = EDGE_LOOP ( 'NONE', ( #180, #204, #202, #187 ) ) ;
#186 = ADVANCED_FACE ( 'NONE', ( #266 ), #265, .T. ) ;
#187 = ORIENTED_EDGE ( 'NONE', *, *, #188, .F. ) ;
#188 = EDGE_CURVE ( 'NONE', #183, #200, #159, .T. ) ;
#189 = EDGE_LOOP ( 'NONE', ( #194, #195, #191, #192 ) ) ;
#190 = VERTEX_POINT ( 'NONE', #87 ) ;
#191 = ORIENTED_EDGE ( 'NONE', *, *, #219, .T. ) ;
#192 = ORIENTED_EDGE ( 'NONE', *, *, #162, .T. ) ;
#193 = VERTEX_POINT ( 'NONE', #43 ) ;
#194 = ORIENTED_EDGE ( 'NONE', *, *, #210, .F. ) ;
#195 = ORIENTED_EDGE ( 'NONE', *, *, #196, .T. ) ;
#196 = EDGE_CURVE ( 'NONE', #217, #190, #24, .T. ) ;
#197 = VERTEX_POINT ( 'NONE', #39 ) ;
#198 = ORIENTED_EDGE ( 'NONE', *, *, #215, .T. ) ;
#199 = ADVANCED_FACE ( 'NONE', ( #30 ), #11, .T. ) ;
#200 = VERTEX_POINT ( 'NONE', #65 ) ;
#201 = EDGE_CURVE ( 'NONE', #200, #203, #60, .T. ) ;
#202 = ORIENTED_EDGE ( 'NONE', *, *, #201, .F. ) ;
#203 = VERTEX_POINT ( 'NONE', #38 ) ;
#204 = ORIENTED_EDGE ( 'NONE', *, *, #205, .T. ) ;
#205 = EDGE_CURVE ( 'NONE', #182, #203, #45, .T. ) ;
#206 = EDGE_LOOP ( 'NONE', ( #198, #216, #207, #211 ) ) ;
#207 = ORIENTED_EDGE ( 'NONE', *, *, #210, .T. ) ;
#208 = VERTEX_POINT ( 'NONE', #83 ) ;
#209 = ORIENTED_EDGE ( 'NONE', *, *, #215, .F. ) ;
#210 = EDGE_CURVE ( 'NONE', #217, #208, #19, .T. ) ;
#211 = ORIENTED_EDGE ( 'NONE', *, *, #162, .F. ) ;
#212 = ORIENTED_EDGE ( 'NONE', *, *, #219, .F. ) ;
#213 = ORIENTED_EDGE ( 'NONE', *, *, #214, .F. ) ;
#214 = EDGE_CURVE ( 'NONE', #179, #190, #18, .T. ) ;
#215 = EDGE_CURVE ( 'NONE', #197, #193, #48, .T. ) ;
#216 = ORIENTED_EDGE ( 'NONE', *, *, #218, .T. ) ;
#217 = VERTEX_POINT ( 'NONE', #35 ) ;
#218 = EDGE_CURVE ( 'NONE', #193, #217, #25, .T. ) ;
#219 = EDGE_CURVE ( 'NONE', #190, #197, #28, .T. ) ;
#220 = ORIENTED_EDGE ( 'NONE', *, *, #222, .T. ) ;
#221 = ORIENTED_EDGE ( 'NONE', *, *, #188, .T. ) ;
#222 = EDGE_CURVE ( 'NONE', #200, #193, #29, .T. ) ;
#223 = EDGE_LOOP ( 'NONE', ( #178, #221, #220, #209, #212, #213 ) ) ;
#224 = ADVANCED_FACE ( 'NONE', ( #67 ), #66, .T. ) ;
#225 = EDGE_CURVE ( 'NONE', #179, #183, #53, .T. ) ;
#226 = DIRECTION ( 'NONE',  ( -1.000000000000000000, 0.0000000000000000000, 0.0000000000000000000 ) ) ;
#227 = CARTESIAN_POINT ( 'NONE',  ( 0.0000000000000000000, 0.0000000000000000000, 1.100000000000000100 ) ) ;
#228 = AXIS2_PLACEMENT_3D ( 'NONE', #227, #231, #247 ) ;
#229 = CYLINDRICAL_SURFACE ( 'NONE', #228, 6.349999999999999600 ) ;
#230 = CARTESIAN_POINT ( 'NONE',  ( 6.349999999999999600, 0.0000000000000000000, -0.8798748359441224100 ) ) ;
#231 = DIRECTION ( 'NONE',  ( 0.0000000000000000000, 0.0000000000000000000, 1.000000000000000000 ) ) ;
#232 = DIRECTION ( 'NONE',  ( 1.000000000000000000, 0.0000000000000000000, 0.0000000000000000000 ) ) ;
#233 = DIRECTION ( 'NONE',  ( 0.0000000000000000000, 0.0000000000000000000, 1.000000000000000000 ) ) ;
#234 = CARTESIAN_POINT ( 'NONE',  ( 0.0000000000000000000, 0.0000000000000000000, -0.8798748359441224100 ) ) ;
#235 = AXIS2_PLACEMENT_3D ( 'NONE', #234, #233, #232 ) ;
#236 = CIRCLE ( 'NONE', #235, 6.349999999999999600 ) ;
#237 = FACE_OUTER_BOUND ( 'NONE', #165, .T. ) ;
#238 = AXIS2_PLACEMENT_3D ( 'NONE', #258, #257, #256 ) ;
#239 = FACE_OUTER_BOUND ( 'NONE', #173, .T. ) ;
#240 = AXIS2_PLACEMENT_3D ( 'NONE', #253, #226, #241 ) ;
#241 = DIRECTION ( 'NONE',  ( 0.0000000000000000000, 1.000000000000000000, 0.0000000000000000000 ) ) ;
#242 = DIRECTION ( 'NONE',  ( 0.0000000000000000000, 0.0000000000000000000, -1.000000000000000000 ) ) ;
#243 = DIRECTION ( 'NONE',  ( 1.000000000000000000, 0.0000000000000000000, 0.0000000000000000000 ) ) ;
#244 = CARTESIAN_POINT ( 'NONE',  ( 0.0000000000000000000, 0.0000000000000000000, 90.59999999999999400 ) ) ;
#245 = AXIS2_PLACEMENT_3D ( 'NONE', #244, #243, #242 ) ;
#246 = CIRCLE ( 'NONE', #245, 91.70000000000000300 ) ;
#247 = DIRECTION ( 'NONE',  ( 1.000000000000000000, 0.0000000000000000000, 0.0000000000000000000 ) ) ;
#248 = DIRECTION ( 'NONE',  ( 0.0000000000000000000, 1.000000000000000000, 0.0000000000000000000 ) ) ;
#249 = DIRECTION ( 'NONE',  ( -1.000000000000000000, 0.0000000000000000000, 0.0000000000000000000 ) ) ;
#250 = CARTESIAN_POINT ( 'NONE',  ( 0.0000000000000000000, 0.0000000000000000000, 90.59999999999999400 ) ) ;
#251 = AXIS2_PLACEMENT_3D ( 'NONE', #250, #249, #248 ) ;
#252 = SPHERICAL_SURFACE ( 'NONE', #251, 91.70000000000000300 ) ;
#253 = CARTESIAN_POINT ( 'NONE',  ( 0.0000000000000000000, 0.0000000000000000000, -90.59999999999999400 ) ) ;
#254 = FACE_OUTER_BOUND ( 'NONE', #189, .T. ) ;
#255 = SPHERICAL_SURFACE ( 'NONE', #240, 91.70000000000000300 ) ;
#256 = DIRECTION ( 'NONE',  ( 0.0000000000000000000, 0.0000000000000000000, -1.000000000000000000 ) ) ;
#257 = DIRECTION ( 'NONE',  ( 1.000000000000000000, 0.0000000000000000000, 0.0000000000000000000 ) ) ;
#258 = CARTESIAN_POINT ( 'NONE',  ( 0.0000000000000000000, 0.0000000000000000000, -90.59999999999999400 ) ) ;
#259 = CIRCLE ( 'NONE', #238, 91.70000000000001700 ) ;
#260 = DIRECTION ( 'NONE',  ( 0.0000000000000000000, 1.000000000000000000, 0.0000000000000000000 ) ) ;
#261 = DIRECTION ( 'NONE',  ( -1.000000000000000000, 0.0000000000000000000, 0.0000000000000000000 ) ) ;
#262 = CARTESIAN_POINT ( 'NONE',  ( 0.0000000000000000000, 0.0000000000000000000, 90.59999999999999400 ) ) ;
#263 = AXIS2_PLACEMENT_3D ( 'NONE', #262, #261, #260 ) ;
#264 = CARTESIAN_POINT ( 'NONE',  ( 0.0000000000000000000, 6.349999999999946400, -0.8798748359441223000 ) ) ;
#265 = SPHERICAL_SURFACE ( 'NONE', #263, 91.70000000000000300 ) ;
#266 = FACE_OUTER_BOUND ( 'NONE', #185, .T. ) ;
#267 = CARTESIAN_POINT ( 'NONE',  ( 0.0000000000000000000, 5.615005574090614300E-015, -1.100000000000003600 ) ) ;
ENDSEC;
END-ISO-10303-21;
