ISO-10303-21;
HEADER;
FILE_DESCRIPTION (( 'STEP AP203' ),
    '1' );
FILE_NAME ('step_49002.step',
    '2014-06-05T18:40:10',
    ( '' ),
    ( '' ),
    'SwSTEP 2.0',
    'SolidWorks 2014',
    '' );
FILE_SCHEMA (( 'CONFIG_CONTROL_DESIGN' ));
ENDSEC;

DATA;
#1 = DATE_TIME_ROLE ( 'creation_date' ) ;
#2 = CC_DESIGN_APPROVAL ( #6, ( #23 ) ) ;
#3 = VECTOR ( 'NONE', #26, 1000.000000000000000 ) ;
#4 = CARTESIAN_POINT ( 'NONE',  ( 0.0000000000000000000, 0.0000000000000000000, 25.00000000000000000 ) ) ;
#5 = APPROVAL_PERSON_ORGANIZATION ( #294, #68, #301 ) ;
#6 = APPROVAL ( #75, 'UNSPECIFIED' ) ;
#7 = LINE ( 'NONE', #125, #70 ) ;
#8 = VERTEX_POINT ( 'NONE', #244 ) ;
#9 =( LENGTH_UNIT ( ) NAMED_UNIT ( * ) SI_UNIT ( .MILLI., .METRE. ) );
#10 = FACE_OUTER_BOUND ( 'NONE', #251, .T. ) ;
#11 = CC_DESIGN_DATE_AND_TIME_ASSIGNMENT ( #123, #191, ( #23 ) ) ;
#12 = DIRECTION ( 'NONE',  ( 0.0000000000000000000, 0.0000000000000000000, -1.000000000000000000 ) ) ;
#13 = EDGE_LOOP ( 'NONE', ( #159, #231, #85 ) ) ;
#14 = VERTEX_POINT ( 'NONE', #217 ) ;
#15 = LINE ( 'NONE', #307, #260 ) ;
#16 = APPLICATION_CONTEXT ( 'configuration controlled 3d designs of mechanical parts and assemblies' ) ;
#17 = CC_DESIGN_PERSON_AND_ORGANIZATION_ASSIGNMENT ( #27, #79, ( #23 ) ) ;
#18 = LINE ( 'NONE', #69, #3 ) ;
#19 = DATE_AND_TIME ( #305, #265 ) ;
#20 = DIRECTION ( 'NONE',  ( 1.000000000000000000, 0.0000000000000000000, 0.0000000000000000000 ) ) ;
#21 = APPLICATION_PROTOCOL_DEFINITION ( 'international standard', 'config_control_design', 1994, #16 ) ;
#22 = ORIENTED_EDGE ( 'NONE', *, *, #136, .T. ) ;
#23 = SECURITY_CLASSIFICATION ( '', '', #31 ) ;
#24 = CC_DESIGN_PERSON_AND_ORGANIZATION_ASSIGNMENT ( #311, #47, ( #45 ) ) ;
#25 = ADVANCED_FACE ( 'NONE', ( #32 ), #203, .F. ) ;
#26 = DIRECTION ( 'NONE',  ( 1.000000000000000000, -7.346371089238243100E-017, -0.0000000000000000000 ) ) ;
#27 = PERSON_AND_ORGANIZATION ( #239, #291 ) ;
#28 = CARTESIAN_POINT ( 'NONE',  ( 0.0000000000000000000, 0.0000000000000000000, 25.00000000000000000 ) ) ;
#29 = CC_DESIGN_PERSON_AND_ORGANIZATION_ASSIGNMENT ( #33, #148, ( #45 ) ) ;
#30 = CARTESIAN_POINT ( 'NONE',  ( 0.0000000000000000000, 0.0000000000000000000, 0.0000000000000000000 ) ) ;
#31 = SECURITY_CLASSIFICATION_LEVEL ( 'unclassified' ) ;
#32 = FACE_OUTER_BOUND ( 'NONE', #98, .T. ) ;
#33 = PERSON_AND_ORGANIZATION ( #239, #291 ) ;
#34 = ADVANCED_BREP_SHAPE_REPRESENTATION ( 'step_49002', ( #317, #274, #84 ), #128 ) ;
#35 = ORIENTED_EDGE ( 'NONE', *, *, #293, .T. ) ;
#36 = ORIENTED_EDGE ( 'NONE', *, *, #289, .T. ) ;
#37 = FACE_OUTER_BOUND ( 'NONE', #165, .T. ) ;
#38 = CC_DESIGN_APPROVAL ( #43, ( #45 ) ) ;
#39 = MECHANICAL_CONTEXT ( 'NONE', #16, 'mechanical' ) ;
#40 = ORIENTED_EDGE ( 'NONE', *, *, #240, .F. ) ;
#41 = ORIENTED_EDGE ( 'NONE', *, *, #105, .T. ) ;
#42 = FACE_OUTER_BOUND ( 'NONE', #162, .T. ) ;
#43 = APPROVAL ( #303, 'UNSPECIFIED' ) ;
#44 = DESIGN_CONTEXT ( 'detailed design', #247, 'design' ) ;
#45 = PRODUCT_DEFINITION_FORMATION_WITH_SPECIFIED_SOURCE ( 'ANY', '', #137, .NOT_KNOWN. ) ;
#46 = LINE ( 'NONE', #170, #86 ) ;
#47 = PERSON_AND_ORGANIZATION_ROLE ( 'design_supplier' ) ;
#48 = DATE_AND_TIME ( #167, #190 ) ;
#49 = DIRECTION ( 'NONE',  ( -0.0000000000000000000, -0.0000000000000000000, -1.000000000000000000 ) ) ;
#50 = CC_DESIGN_DATE_AND_TIME_ASSIGNMENT ( #19, #1, ( #72 ) ) ;
#51 = VERTEX_POINT ( 'NONE', #243 ) ;
#52 = LOCAL_TIME ( 11, 40, 10.00000000000000000, #319 ) ;
#53 = ORIENTED_EDGE ( 'NONE', *, *, #122, .T. ) ;
#54 = LINE ( 'NONE', #216, #73 ) ;
#55 = ADVANCED_FACE ( 'NONE', ( #259 ), #185, .T. ) ;
#56 = VECTOR ( 'NONE', #163, 1000.000000000000000 ) ;
#57 = DIRECTION ( 'NONE',  ( 1.000000000000000000, 0.0000000000000000000, 0.0000000000000000000 ) ) ;
#58 = CC_DESIGN_PERSON_AND_ORGANIZATION_ASSIGNMENT ( #228, #196, ( #72 ) ) ;
#59 = ORIENTED_EDGE ( 'NONE', *, *, #314, .F. ) ;
#60 = ORIENTED_EDGE ( 'NONE', *, *, #295, .T. ) ;
#61 =( NAMED_UNIT ( * ) PLANE_ANGLE_UNIT ( ) SI_UNIT ( $, .RADIAN. ) );
#62 = VECTOR ( 'NONE', #313, 1000.000000000000000 ) ;
#63 = VECTOR ( 'NONE', #166, 1000.000000000000000 ) ;
#64 = CC_DESIGN_APPROVAL ( #68, ( #72 ) ) ;
#65 = DIRECTION ( 'NONE',  ( -0.7071067811865474600, -0.7071067811865474600, -0.0000000000000000000 ) ) ;
#66 = CARTESIAN_POINT ( 'NONE',  ( 0.0000000000000000000, 0.0000000000000000000, 0.0000000000000000000 ) ) ;
#67 = EDGE_LOOP ( 'NONE', ( #129, #80, #71 ) ) ;
#68 = APPROVAL ( #208, 'UNSPECIFIED' ) ;
#69 = CARTESIAN_POINT ( 'NONE',  ( 25.00000000000000400, -1.836592772309561100E-015, 25.00000000000000000 ) ) ;
#70 = VECTOR ( 'NONE', #120, 1000.000000000000000 ) ;
#71 = ORIENTED_EDGE ( 'NONE', *, *, #283, .F. ) ;
#72 = PRODUCT_DEFINITION ( 'UNKNOWN', '', #45, #44 ) ;
#73 = VECTOR ( 'NONE', #215, 1000.000000000000000 ) ;
#74 = DIRECTION ( 'NONE',  ( 1.000000000000000000, 0.0000000000000000000, -0.0000000000000000000 ) ) ;
#75 = APPROVAL_STATUS ( 'not_yet_approved' ) ;
#76 = CC_DESIGN_PERSON_AND_ORGANIZATION_ASSIGNMENT ( #302, #152, ( #137 ) ) ;
#77 = CARTESIAN_POINT ( 'NONE',  ( 0.0000000000000000000, 0.0000000000000000000, 0.0000000000000000000 ) ) ;
#78 = ORIENTED_EDGE ( 'NONE', *, *, #122, .F. ) ;
#79 = PERSON_AND_ORGANIZATION_ROLE ( 'classification_officer' ) ;
#80 = ORIENTED_EDGE ( 'NONE', *, *, #136, .F. ) ;
#81 = CARTESIAN_POINT ( 'NONE',  ( 25.00000000000000000, 25.00000000000000000, 25.00000000000000000 ) ) ;
#82 = CARTESIAN_POINT ( 'NONE',  ( 25.00000000000000000, 25.00000000000000000, 0.0000000000000000000 ) ) ;
#83 = DIRECTION ( 'NONE',  ( -1.000000000000000000, 0.0000000000000000000, 0.0000000000000000000 ) ) ;
#84 = AXIS2_PLACEMENT_3D ( 'NONE', #77, #205, #57 ) ;
#85 = ORIENTED_EDGE ( 'NONE', *, *, #117, .T. ) ;
#86 = VECTOR ( 'NONE', #174, 1000.000000000000100 ) ;
#87 = ADVANCED_FACE ( 'NONE', ( #139 ), #157, .F. ) ;
#88 = DIRECTION ( 'NONE',  ( 0.0000000000000000000, 0.0000000000000000000, -1.000000000000000000 ) ) ;
#89 = CARTESIAN_POINT ( 'NONE',  ( 0.0000000000000000000, 0.0000000000000000000, 25.00000000000000000 ) ) ;
#90 = VERTEX_POINT ( 'NONE', #140 ) ;
#91 = DIRECTION ( 'NONE',  ( -0.7071067811865474600, -0.7071067811865474600, -0.0000000000000000000 ) ) ;
#92 = DIRECTION ( 'NONE',  ( -1.387778780781445400E-016, 1.000000000000000000, -0.0000000000000000000 ) ) ;
#93 = CARTESIAN_POINT ( 'NONE',  ( 0.0000000000000000000, 0.0000000000000000000, 0.0000000000000000000 ) ) ;
#94 = ORIENTED_EDGE ( 'NONE', *, *, #300, .T. ) ;
#95 = ORIENTED_EDGE ( 'NONE', *, *, #295, .F. ) ;
#96 = CARTESIAN_POINT ( 'NONE',  ( 0.0000000000000000000, 0.0000000000000000000, 25.00000000000000000 ) ) ;
#97 = DIRECTION ( 'NONE',  ( -0.0000000000000000000, -0.0000000000000000000, -1.000000000000000000 ) ) ;
#98 = EDGE_LOOP ( 'NONE', ( #175, #40, #171, #287 ) ) ;
#99 = FACE_OUTER_BOUND ( 'NONE', #255, .T. ) ;
#100 = PLANE ( 'NONE',  #101 ) ;
#101 = AXIS2_PLACEMENT_3D ( 'NONE', #89, #88, #83 ) ;
#102 = EDGE_LOOP ( 'NONE', ( #22, #222, #245, #187 ) ) ;
#103 = APPROVAL_ROLE ( '' ) ;
#104 = PLANE ( 'NONE',  #227 ) ;
#105 = EDGE_CURVE ( 'NONE', #237, #164, #18, .T. ) ;
#106 = LINE ( 'NONE', #133, #145 ) ;
#107 = ADVANCED_FACE ( 'NONE', ( #184 ), #104, .F. ) ;
#108 = EDGE_LOOP ( 'NONE', ( #78, #118, #59 ) ) ;
#109 = SHAPE_DEFINITION_REPRESENTATION ( #236, #34 ) ;
#110 = VECTOR ( 'NONE', #200, 1000.000000000000000 ) ;
#111 = EDGE_CURVE ( 'NONE', #164, #14, #114, .T. ) ;
#112 = DIRECTION ( 'NONE',  ( 0.7071067811865474600, 0.7071067811865474600, -0.0000000000000000000 ) ) ;
#113 =( NAMED_UNIT ( * ) SI_UNIT ( $, .STERADIAN. ) SOLID_ANGLE_UNIT ( ) );
#114 = LINE ( 'NONE', #316, #62 ) ;
#115 = CC_DESIGN_SECURITY_CLASSIFICATION ( #23, ( #45 ) ) ;
#116 = DIRECTION ( 'NONE',  ( 0.0000000000000000000, -0.0000000000000000000, -1.000000000000000000 ) ) ;
#117 = EDGE_CURVE ( 'NONE', #214, #51, #180, .T. ) ;
#118 = ORIENTED_EDGE ( 'NONE', *, *, #300, .F. ) ;
#119 = VECTOR ( 'NONE', #92, 1000.000000000000000 ) ;
#120 = DIRECTION ( 'NONE',  ( -1.000000000000000000, -0.0000000000000000000, -0.0000000000000000000 ) ) ;
#121 = ORIENTED_EDGE ( 'NONE', *, *, #105, .F. ) ;
#122 = EDGE_CURVE ( 'NONE', #90, #229, #181, .T. ) ;
#123 = DATE_AND_TIME ( #202, #52 ) ;
#124 = LOCAL_TIME ( 11, 40, 10.00000000000000000, #210 ) ;
#125 = CARTESIAN_POINT ( 'NONE',  ( 0.0000000000000000000, 25.00000000000000000, 0.0000000000000000000 ) ) ;
#126 = CARTESIAN_POINT ( 'NONE',  ( 0.0000000000000000000, 0.0000000000000000000, 25.00000000000000000 ) ) ;
#127 = APPROVAL_DATE_TIME ( #315, #68 ) ;
#128 =( GEOMETRIC_REPRESENTATION_CONTEXT ( 3 ) GLOBAL_UNCERTAINTY_ASSIGNED_CONTEXT ( ( #177 ) ) GLOBAL_UNIT_ASSIGNED_CONTEXT ( ( #9, #61, #113 ) ) REPRESENTATION_CONTEXT ( 'NONE', 'WORKASPACE' ) );
#129 = ORIENTED_EDGE ( 'NONE', *, *, #289, .F. ) ;
#130 = CALENDAR_DATE ( 2014, 5, 6 ) ;
#131 = PERSON_AND_ORGANIZATION ( #239, #291 ) ;
#132 = APPLICATION_PROTOCOL_DEFINITION ( 'international standard', 'config_control_design', 1994, #247 ) ;
#133 = CARTESIAN_POINT ( 'NONE',  ( 25.00000000000000000, 25.00000000000000000, 0.0000000000000000000 ) ) ;
#134 = AXIS2_PLACEMENT_3D ( 'NONE', #147, #146, #144 ) ;
#135 = DATE_AND_TIME ( #130, #124 ) ;
#136 = EDGE_CURVE ( 'NONE', #186, #8, #15, .T. ) ;
#137 = PRODUCT ( 'step_49002', 'step_49002', '', ( #39 ) ) ;
#138 = VERTEX_POINT ( 'NONE', #292 ) ;
#139 = FACE_OUTER_BOUND ( 'NONE', #108, .T. ) ;
#140 = CARTESIAN_POINT ( 'NONE',  ( 0.0000000000000000000, 0.0000000000000000000, 0.0000000000000000000 ) ) ;
#141 = APPROVAL_PERSON_ORGANIZATION ( #131, #6, #103 ) ;
#142 = VECTOR ( 'NONE', #309, 1000.000000000000000 ) ;
#143 = CARTESIAN_POINT ( 'NONE',  ( 25.00000000000000000, 25.00000000000000000, 25.00000000000000000 ) ) ;
#144 = DIRECTION ( 'NONE',  ( 1.387778780781445400E-016, -1.000000000000000000, 0.0000000000000000000 ) ) ;
#145 = VECTOR ( 'NONE', #112, 1000.000000000000100 ) ;
#146 = DIRECTION ( 'NONE',  ( -1.000000000000000000, -1.387778780781445400E-016, 0.0000000000000000000 ) ) ;
#147 = CARTESIAN_POINT ( 'NONE',  ( 25.00000000000000000, 25.00000000000000000, 25.00000000000000000 ) ) ;
#148 = PERSON_AND_ORGANIZATION_ROLE ( 'creator' ) ;
#149 = AXIS2_PLACEMENT_3D ( 'NONE', #195, #188, #179 ) ;
#150 = DIRECTION ( 'NONE',  ( -1.000000000000000000, 0.0000000000000000000, 0.0000000000000000000 ) ) ;
#151 = VERTEX_POINT ( 'NONE', #285 ) ;
#152 = PERSON_AND_ORGANIZATION_ROLE ( 'design_owner' ) ;
#153 = DIRECTION ( 'NONE',  ( 0.0000000000000000000, 0.0000000000000000000, -1.000000000000000000 ) ) ;
#154 = DIRECTION ( 'NONE',  ( -0.0000000000000000000, -0.0000000000000000000, -1.000000000000000000 ) ) ;
#155 = PLANE ( 'NONE',  #134 ) ;
#156 = VERTEX_POINT ( 'NONE', #284 ) ;
#157 = PLANE ( 'NONE',  #248 ) ;
#158 = AXIS2_PLACEMENT_3D ( 'NONE', #249, #238, #233 ) ;
#159 = ORIENTED_EDGE ( 'NONE', *, *, #280, .T. ) ;
#160 = APPROVAL_PERSON_ORGANIZATION ( #189, #43, #223 ) ;
#161 = ADVANCED_FACE ( 'NONE', ( #42 ), #290, .F. ) ;
#162 = EDGE_LOOP ( 'NONE', ( #36, #173, #225, #35 ) ) ;
#163 = DIRECTION ( 'NONE',  ( -1.000000000000000000, -0.0000000000000000000, -0.0000000000000000000 ) ) ;
#164 = VERTEX_POINT ( 'NONE', #299 ) ;
#165 = EDGE_LOOP ( 'NONE', ( #41, #176, #60 ) ) ;
#166 = DIRECTION ( 'NONE',  ( -0.0000000000000000000, -0.0000000000000000000, -1.000000000000000000 ) ) ;
#167 = CALENDAR_DATE ( 2014, 5, 6 ) ;
#168 = CARTESIAN_POINT ( 'NONE',  ( 0.0000000000000000000, 0.0000000000000000000, 25.00000000000000000 ) ) ;
#169 = CLOSED_SHELL ( 'NONE', ( #182, #281, #212, #266, #87 ) ) ;
#170 = CARTESIAN_POINT ( 'NONE',  ( 25.00000000000000000, 25.00000000000000000, 25.00000000000000000 ) ) ;
#171 = ORIENTED_EDGE ( 'NONE', *, *, #272, .F. ) ;
#172 = CARTESIAN_POINT ( 'NONE',  ( 0.0000000000000000000, 25.00000000000000000, 25.00000000000000000 ) ) ;
#173 = ORIENTED_EDGE ( 'NONE', *, *, #286, .F. ) ;
#174 = DIRECTION ( 'NONE',  ( 0.7071067811865474600, 0.7071067811865474600, -0.0000000000000000000 ) ) ;
#175 = ORIENTED_EDGE ( 'NONE', *, *, #283, .T. ) ;
#176 = ORIENTED_EDGE ( 'NONE', *, *, #111, .T. ) ;
#177 = UNCERTAINTY_MEASURE_WITH_UNIT (LENGTH_MEASURE( 1.000000000000000100E-005 ), #9, 'distance_accuracy_value', 'NONE');
#178 = AXIS2_PLACEMENT_3D ( 'NONE', #262, #254, #252 ) ;
#179 = DIRECTION ( 'NONE',  ( 1.000000000000000000, 0.0000000000000000000, -0.0000000000000000000 ) ) ;
#180 = LINE ( 'NONE', #28, #142 ) ;
#181 = LINE ( 'NONE', #310, #206 ) ;
#182 = ADVANCED_FACE ( 'NONE', ( #99 ), #273, .F. ) ;
#183 = COORDINATED_UNIVERSAL_TIME_OFFSET ( 7, 0, .BEHIND. ) ;
#184 = FACE_OUTER_BOUND ( 'NONE', #102, .T. ) ;
#185 = PLANE ( 'NONE',  #263 ) ;
#186 = VERTEX_POINT ( 'NONE', #256 ) ;
#187 = ORIENTED_EDGE ( 'NONE', *, *, #240, .T. ) ;
#188 = DIRECTION ( 'NONE',  ( 0.0000000000000000000, 0.0000000000000000000, 1.000000000000000000 ) ) ;
#189 = PERSON_AND_ORGANIZATION ( #239, #291 ) ;
#190 = LOCAL_TIME ( 11, 40, 10.00000000000000000, #211 ) ;
#191 = DATE_TIME_ROLE ( 'classification_date' ) ;
#192 = EDGE_LOOP ( 'NONE', ( #94, #278, #95, #213 ) ) ;
#193 = DIRECTION ( 'NONE',  ( 0.0000000000000000000, 0.0000000000000000000, 1.000000000000000000 ) ) ;
#194 = CARTESIAN_POINT ( 'NONE',  ( 0.0000000000000000000, 25.00000000000000000, 25.00000000000000000 ) ) ;
#195 = CARTESIAN_POINT ( 'NONE',  ( 0.0000000000000000000, 0.0000000000000000000, 25.00000000000000000 ) ) ;
#196 = PERSON_AND_ORGANIZATION_ROLE ( 'creator' ) ;
#197 = PLANE ( 'NONE',  #149 ) ;
#198 = DIRECTION ( 'NONE',  ( 0.0000000000000000000, -1.000000000000000000, 0.0000000000000000000 ) ) ;
#199 = VECTOR ( 'NONE', #65, 1000.000000000000100 ) ;
#200 = DIRECTION ( 'NONE',  ( -0.0000000000000000000, -0.0000000000000000000, -1.000000000000000000 ) ) ;
#201 = CALENDAR_DATE ( 2014, 5, 6 ) ;
#202 = CALENDAR_DATE ( 2014, 5, 6 ) ;
#203 = PLANE ( 'NONE',  #275 ) ;
#204 = ORIENTED_EDGE ( 'NONE', *, *, #271, .T. ) ;
#205 = DIRECTION ( 'NONE',  ( 0.0000000000000000000, 0.0000000000000000000, 1.000000000000000000 ) ) ;
#206 = VECTOR ( 'NONE', #321, 1000.000000000000000 ) ;
#207 = AXIS2_PLACEMENT_3D ( 'NONE', #282, #279, #277 ) ;
#208 = APPROVAL_STATUS ( 'not_yet_approved' ) ;
#209 = ORIENTED_EDGE ( 'NONE', *, *, #320, .F. ) ;
#210 = COORDINATED_UNIVERSAL_TIME_OFFSET ( 7, 0, .BEHIND. ) ;
#211 = COORDINATED_UNIVERSAL_TIME_OFFSET ( 7, 0, .BEHIND. ) ;
#212 = ADVANCED_FACE ( 'NONE', ( #234 ), #267, .F. ) ;
#213 = ORIENTED_EDGE ( 'NONE', *, *, #320, .T. ) ;
#214 = VERTEX_POINT ( 'NONE', #242 ) ;
#215 = DIRECTION ( 'NONE',  ( -0.0000000000000000000, -0.0000000000000000000, -1.000000000000000000 ) ) ;
#216 = CARTESIAN_POINT ( 'NONE',  ( 0.0000000000000000000, 25.00000000000000000, 25.00000000000000000 ) ) ;
#217 = CARTESIAN_POINT ( 'NONE',  ( 25.00000000000000000, 25.00000000000000000, 25.00000000000000000 ) ) ;
#218 = ORIENTED_EDGE ( 'NONE', *, *, #261, .F. ) ;
#219 = LINE ( 'NONE', #96, #241 ) ;
#220 = CARTESIAN_POINT ( 'NONE',  ( 25.00000000000000400, -1.836592772309561100E-015, 25.00000000000000000 ) ) ;
#221 = ORIENTED_EDGE ( 'NONE', *, *, #111, .F. ) ;
#222 = ORIENTED_EDGE ( 'NONE', *, *, #293, .F. ) ;
#223 = APPROVAL_ROLE ( '' ) ;
#224 = CARTESIAN_POINT ( 'NONE',  ( 25.00000000000000400, -1.836592772309561100E-015, 0.0000000000000000000 ) ) ;
#225 = ORIENTED_EDGE ( 'NONE', *, *, #280, .F. ) ;
#226 = VECTOR ( 'NONE', #49, 1000.000000000000000 ) ;
#227 = AXIS2_PLACEMENT_3D ( 'NONE', #4, #20, #12 ) ;
#228 = PERSON_AND_ORGANIZATION ( #239, #291 ) ;
#229 = VERTEX_POINT ( 'NONE', #224 ) ;
#230 = LINE ( 'NONE', #194, #56 ) ;
#231 = ORIENTED_EDGE ( 'NONE', *, *, #272, .T. ) ;
#232 = ORIENTED_EDGE ( 'NONE', *, *, #314, .T. ) ;
#233 = DIRECTION ( 'NONE',  ( 0.7071067811865474600, 0.7071067811865474600, 0.0000000000000000000 ) ) ;
#234 = FACE_OUTER_BOUND ( 'NONE', #192, .T. ) ;
#235 = LINE ( 'NONE', #81, #226 ) ;
#236 = PRODUCT_DEFINITION_SHAPE ( 'NONE', 'NONE',  #72 ) ;
#237 = VERTEX_POINT ( 'NONE', #250 ) ;
#238 = DIRECTION ( 'NONE',  ( 0.7071067811865475700, -0.7071067811865475700, 0.0000000000000000000 ) ) ;
#239 = PERSON ( 'UNSPECIFIED', 'UNSPECIFIED', 'UNSPECIFIED', ('UNSPECIFIED'), ('UNSPECIFIED'), ('UNSPECIFIED') ) ;
#240 = EDGE_CURVE ( 'NONE', #214, #186, #54, .T. ) ;
#241 = VECTOR ( 'NONE', #91, 1000.000000000000100 ) ;
#242 = CARTESIAN_POINT ( 'NONE',  ( 0.0000000000000000000, 25.00000000000000000, 25.00000000000000000 ) ) ;
#243 = CARTESIAN_POINT ( 'NONE',  ( 0.0000000000000000000, 0.0000000000000000000, 25.00000000000000000 ) ) ;
#244 = CARTESIAN_POINT ( 'NONE',  ( 0.0000000000000000000, 0.0000000000000000000, 0.0000000000000000000 ) ) ;
#245 = ORIENTED_EDGE ( 'NONE', *, *, #117, .F. ) ;
#246 = LINE ( 'NONE', #82, #119 ) ;
#247 = APPLICATION_CONTEXT ( 'configuration controlled 3d designs of mechanical parts and assemblies' ) ;
#248 = AXIS2_PLACEMENT_3D ( 'NONE', #30, #193, #74 ) ;
#249 = CARTESIAN_POINT ( 'NONE',  ( 0.0000000000000000000, 0.0000000000000000000, 25.00000000000000000 ) ) ;
#250 = CARTESIAN_POINT ( 'NONE',  ( 0.0000000000000000000, 0.0000000000000000000, 25.00000000000000000 ) ) ;
#251 = EDGE_LOOP ( 'NONE', ( #232, #209, #221, #258 ) ) ;
#252 = DIRECTION ( 'NONE',  ( -1.000000000000000000, 7.346371089238243100E-017, 0.0000000000000000000 ) ) ;
#253 = LOCAL_TIME ( 11, 40, 10.00000000000000000, #183 ) ;
#254 = DIRECTION ( 'NONE',  ( 7.346371089238243100E-017, 1.000000000000000000, -0.0000000000000000000 ) ) ;
#255 = EDGE_LOOP ( 'NONE', ( #53, #218, #121, #204 ) ) ;
#256 = CARTESIAN_POINT ( 'NONE',  ( 0.0000000000000000000, 25.00000000000000000, 0.0000000000000000000 ) ) ;
#257 = FACE_OUTER_BOUND ( 'NONE', #13, .T. ) ;
#258 = ORIENTED_EDGE ( 'NONE', *, *, #261, .T. ) ;
#259 = FACE_OUTER_BOUND ( 'NONE', #67, .T. ) ;
#260 = VECTOR ( 'NONE', #306, 1000.000000000000000 ) ;
#261 = EDGE_CURVE ( 'NONE', #164, #229, #270, .T. ) ;
#262 = CARTESIAN_POINT ( 'NONE',  ( 25.00000000000000400, -1.836592772309561100E-015, 25.00000000000000000 ) ) ;
#263 = AXIS2_PLACEMENT_3D ( 'NONE', #93, #153, #150 ) ;
#264 = CLOSED_SHELL ( 'NONE', ( #161, #25, #107, #296, #55 ) ) ;
#265 = LOCAL_TIME ( 11, 40, 10.00000000000000000, #297 ) ;
#266 = ADVANCED_FACE ( 'NONE', ( #37 ), #197, .T. ) ;
#267 = PLANE ( 'NONE',  #158 ) ;
#268 = LINE ( 'NONE', #143, #269 ) ;
#269 = VECTOR ( 'NONE', #154, 1000.000000000000000 ) ;
#270 = LINE ( 'NONE', #220, #110 ) ;
#271 = EDGE_CURVE ( 'NONE', #237, #90, #276, .T. ) ;
#272 = EDGE_CURVE ( 'NONE', #151, #214, #230, .T. ) ;
#273 = PLANE ( 'NONE',  #178 ) ;
#274 = MANIFOLD_SOLID_BREP ( 'Boss-Extrude2', #169 ) ;
#275 = AXIS2_PLACEMENT_3D ( 'NONE', #172, #198, #116 ) ;
#276 = LINE ( 'NONE', #168, #63 ) ;
#277 = DIRECTION ( 'NONE',  ( -0.7071067811865474600, -0.7071067811865474600, 0.0000000000000000000 ) ) ;
#278 = ORIENTED_EDGE ( 'NONE', *, *, #271, .F. ) ;
#279 = DIRECTION ( 'NONE',  ( -0.7071067811865475700, 0.7071067811865475700, 0.0000000000000000000 ) ) ;
#280 = EDGE_CURVE ( 'NONE', #51, #151, #46, .T. ) ;
#281 = ADVANCED_FACE ( 'NONE', ( #10 ), #155, .F. ) ;
#282 = CARTESIAN_POINT ( 'NONE',  ( 25.00000000000000000, 25.00000000000000000, 25.00000000000000000 ) ) ;
#283 = EDGE_CURVE ( 'NONE', #138, #186, #7, .T. ) ;
#284 = CARTESIAN_POINT ( 'NONE',  ( 25.00000000000000000, 25.00000000000000000, 0.0000000000000000000 ) ) ;
#285 = CARTESIAN_POINT ( 'NONE',  ( 25.00000000000000000, 25.00000000000000000, 25.00000000000000000 ) ) ;
#286 = EDGE_CURVE ( 'NONE', #151, #138, #268, .T. ) ;
#287 = ORIENTED_EDGE ( 'NONE', *, *, #286, .T. ) ;
#288 = LINE ( 'NONE', #66, #199 ) ;
#289 = EDGE_CURVE ( 'NONE', #8, #138, #106, .T. ) ;
#290 = PLANE ( 'NONE',  #207 ) ;
#291 = ORGANIZATION ( 'UNSPECIFIED', 'UNSPECIFIED', '' ) ;
#292 = CARTESIAN_POINT ( 'NONE',  ( 25.00000000000000000, 25.00000000000000000, 0.0000000000000000000 ) ) ;
#293 = EDGE_CURVE ( 'NONE', #51, #8, #318, .T. ) ;
#294 = PERSON_AND_ORGANIZATION ( #239, #291 ) ;
#295 = EDGE_CURVE ( 'NONE', #14, #237, #219, .T. ) ;
#296 = ADVANCED_FACE ( 'NONE', ( #257 ), #100, .F. ) ;
#297 = COORDINATED_UNIVERSAL_TIME_OFFSET ( 7, 0, .BEHIND. ) ;
#298 = APPROVAL_DATE_TIME ( #48, #6 ) ;
#299 = CARTESIAN_POINT ( 'NONE',  ( 25.00000000000000400, -1.836592772309561100E-015, 25.00000000000000000 ) ) ;
#300 = EDGE_CURVE ( 'NONE', #156, #90, #288, .T. ) ;
#301 = APPROVAL_ROLE ( '' ) ;
#302 = PERSON_AND_ORGANIZATION ( #239, #291 ) ;
#303 = APPROVAL_STATUS ( 'not_yet_approved' ) ;
#304 = PRODUCT_RELATED_PRODUCT_CATEGORY ( 'detail', '', ( #137 ) ) ;
#305 = CALENDAR_DATE ( 2014, 5, 6 ) ;
#306 = DIRECTION ( 'NONE',  ( -0.0000000000000000000, -1.000000000000000000, -0.0000000000000000000 ) ) ;
#307 = CARTESIAN_POINT ( 'NONE',  ( 0.0000000000000000000, 0.0000000000000000000, 0.0000000000000000000 ) ) ;
#308 = APPROVAL_DATE_TIME ( #135, #43 ) ;
#309 = DIRECTION ( 'NONE',  ( -0.0000000000000000000, -1.000000000000000000, -0.0000000000000000000 ) ) ;
#310 = CARTESIAN_POINT ( 'NONE',  ( 25.00000000000000400, -1.836592772309561100E-015, 0.0000000000000000000 ) ) ;
#311 = PERSON_AND_ORGANIZATION ( #239, #291 ) ;
#312 = VECTOR ( 'NONE', #97, 1000.000000000000000 ) ;
#313 = DIRECTION ( 'NONE',  ( -1.387778780781445400E-016, 1.000000000000000000, -0.0000000000000000000 ) ) ;
#314 = EDGE_CURVE ( 'NONE', #229, #156, #246, .T. ) ;
#315 = DATE_AND_TIME ( #201, #253 ) ;
#316 = CARTESIAN_POINT ( 'NONE',  ( 25.00000000000000000, 25.00000000000000000, 25.00000000000000000 ) ) ;
#317 = MANIFOLD_SOLID_BREP ( 'Boss-Extrude1', #264 ) ;
#318 = LINE ( 'NONE', #126, #312 ) ;
#319 = COORDINATED_UNIVERSAL_TIME_OFFSET ( 7, 0, .BEHIND. ) ;
#320 = EDGE_CURVE ( 'NONE', #14, #156, #235, .T. ) ;
#321 = DIRECTION ( 'NONE',  ( 1.000000000000000000, -7.346371089238243100E-017, -0.0000000000000000000 ) ) ;
ENDSEC;
END-ISO-10303-21;
