ISO-10303-21;
HEADER;
FILE_DESCRIPTION (( 'STEP AP203' ),
    '1' );
FILE_NAME ('25mm BEAMSPLITTER CUBE TS_35960.step',
    '2017-07-18T13:27:15',
    ( '' ),
    ( '' ),
    'SwSTEP 2.0',
    'SolidWorks 2016',
    '' );
FILE_SCHEMA (( 'CONFIG_CONTROL_DESIGN' ));
ENDSEC;

DATA;
#1 = CC_DESIGN_PERSON_AND_ORGANIZATION_ASSIGNMENT ( #56, #252, ( #269 ) ) ;
#2 = COORDINATED_UNIVERSAL_TIME_OFFSET ( 5, 0, .BEHIND. ) ;
#3 = VERTEX_POINT ( 'NONE', #193 ) ;
#4 = MECHANICAL_CONTEXT ( 'NONE', #235, 'mechanical' ) ;
#5 = CALENDAR_DATE ( 2017, 18, 7 ) ;
#6 = CARTESIAN_POINT ( 'NONE',  ( 12.50000000000000000, 17.67766952966358900, -1.112641391681767300E-015 ) ) ;
#7 = LOCAL_TIME ( 9, 27, 15.00000000000000000, #75 ) ;
#8 = CARTESIAN_POINT ( 'NONE',  ( 12.50000000000000000, 17.67766952966358900, -1.112641391681767300E-015 ) ) ;
#9 = PRODUCT_DEFINITION ( 'UNKNOWN', '', #91, #74 ) ;
#10 = CC_DESIGN_PERSON_AND_ORGANIZATION_ASSIGNMENT ( #354, #155, ( #316 ) ) ;
#11 = CC_DESIGN_APPROVAL ( #257, ( #322 ) ) ;
#12 = DATE_AND_TIME ( #79, #156 ) ;
#13 = DIRECTION ( 'NONE',  ( 0.0000000000000000000, 0.0000000000000000000, 1.000000000000000000 ) ) ;
#14 = ORIENTED_EDGE ( 'NONE', *, *, #202, .F. ) ;
#15 = CONTEXT_DEPENDENT_SHAPE_REPRESENTATION ( #71, #285 ) ;
#16 = DATE_TIME_ROLE ( 'creation_date' ) ;
#17 = MECHANICAL_CONTEXT ( 'NONE', #353, 'mechanical' ) ;
#18 = APPROVAL_DATE_TIME ( #87, #24 ) ;
#19 = PERSON_AND_ORGANIZATION_ROLE ( 'classification_officer' ) ;
#20 = APPROVAL_STATUS ( 'not_yet_approved' ) ;
#21 = DATE_AND_TIME ( #88, #162 ) ;
#22 = DATE_AND_TIME ( #89, #166 ) ;
#23 = EDGE_LOOP ( 'NONE', ( #84, #294, #344 ) ) ;
#24 = APPROVAL ( #154, 'UNSPECIFIED' ) ;
#25 = CC_DESIGN_PERSON_AND_ORGANIZATION_ASSIGNMENT ( #279, #356, ( #316 ) ) ;
#26 = APPROVAL_PERSON_ORGANIZATION ( #97, #24, #352 ) ;
#27 = CALENDAR_DATE ( 2017, 18, 7 ) ;
#28 = DIRECTION ( 'NONE',  ( 0.0000000000000000000, -0.7071067811865439100, -0.7071067811865512400 ) ) ;
#29 = PRODUCT_DEFINITION_SHAPE ( 'NONE', 'NONE',  #322 ) ;
#30 = AXIS2_PLACEMENT_3D ( 'NONE', #334, #136, #312 ) ;
#31 = PLANE ( 'NONE',  #30 ) ;
#32 = APPROVAL_DATE_TIME ( #103, #257 ) ;
#33 = ADVANCED_FACE ( 'NONE', ( #62 ), #134, .F. ) ;
#34 = DIRECTION ( 'NONE',  ( -1.000000000000000000, -0.0000000000000000000, -0.0000000000000000000 ) ) ;
#35 = DIRECTION ( 'NONE',  ( 0.0000000000000000000, 1.000000000000000000, -6.123233995736767300E-017 ) ) ;
#36 = ORIENTED_EDGE ( 'NONE', *, *, #229, .T. ) ;
#37 = DIRECTION ( 'NONE',  ( 0.0000000000000000000, 0.0000000000000000000, 1.000000000000000000 ) ) ;
#38 = SHAPE_DEFINITION_REPRESENTATION ( #242, #309 ) ;
#39 = VECTOR ( 'NONE', #284, 1000.000000000000000 ) ;
#40 = ITEM_DEFINED_TRANSFORMATION ( 'NONE', 'NONE', #225,  #158 ) ;
#41 = APPROVAL_PERSON_ORGANIZATION ( #108, #257, #271 ) ;
#42 = CC_DESIGN_APPROVAL ( #24, ( #9 ) ) ;
#43 = SECURITY_CLASSIFICATION ( '', '', #178 ) ;
#44 = APPROVAL_ROLE ( '' ) ;
#45 = APPLICATION_CONTEXT ( 'configuration controlled 3d designs of mechanical parts and assemblies' ) ;
#46 = VECTOR ( 'NONE', #340, 1000.000000000000000 ) ;
#47 = COORDINATED_UNIVERSAL_TIME_OFFSET ( 5, 0, .BEHIND. ) ;
#48 = APPROVAL_STATUS ( 'not_yet_approved' ) ;
#49 = DATE_TIME_ROLE ( 'classification_date' ) ;
#50 = CALENDAR_DATE ( 2017, 18, 7 ) ;
#51 = LOCAL_TIME ( 9, 27, 15.00000000000000000, #124 ) ;
#52 = FACE_OUTER_BOUND ( 'NONE', #23, .T. ) ;
#53 = DATE_AND_TIME ( #129, #204 ) ;
#54 = DIRECTION ( 'NONE',  ( 0.0000000000000000000, -6.123233995736767300E-017, -1.000000000000000000 ) ) ;
#55 = VECTOR ( 'NONE', #191, 1000.000000000000000 ) ;
#56 = PERSON_AND_ORGANIZATION ( #201, #130 ) ;
#57 = ADVANCED_FACE ( 'NONE', ( #149 ), #31, .T. ) ;
#58 = CARTESIAN_POINT ( 'NONE',  ( 12.50000000000000000, 17.67766952966358600, -3.469446951953614200E-015 ) ) ;
#59 = CARTESIAN_POINT ( 'NONE',  ( -12.50000000000000000, -2.164890140588744600E-015, -17.67766952966377800 ) ) ;
#60 = CC_DESIGN_PERSON_AND_ORGANIZATION_ASSIGNMENT ( #310, #176, ( #9 ) ) ;
#61 = CC_DESIGN_PERSON_AND_ORGANIZATION_ASSIGNMENT ( #200, #19, ( #43 ) ) ;
#62 = FACE_OUTER_BOUND ( 'NONE', #199, .T. ) ;
#63 = APPROVAL_DATE_TIME ( #133, #332 ) ;
#64 = PERSON_AND_ORGANIZATION ( #114, #256 ) ;
#65 = AXIS2_PLACEMENT_3D ( 'NONE', #161, #227, #28 ) ;
#66 = LOCAL_TIME ( 9, 27, 15.00000000000000000, #137 ) ;
#67 = VECTOR ( 'NONE', #107, 999.9999999999998900 ) ;
#68 = PERSON_AND_ORGANIZATION_ROLE ( 'design_supplier' ) ;
#69 = APPROVAL_PERSON_ORGANIZATION ( #143, #332, #327 ) ;
#70 = APPROVAL_STATUS ( 'not_yet_approved' ) ;
#71 =( REPRESENTATION_RELATIONSHIP ('NONE','NONE', #309, #93 ) REPRESENTATION_RELATIONSHIP_WITH_TRANSFORMATION ( #40 )SHAPE_REPRESENTATION_RELATIONSHIP( ) );
#72 = LOCAL_TIME ( 9, 27, 15.00000000000000000, #148 ) ;
#73 = CARTESIAN_POINT ( 'NONE',  ( 0.0000000000000000000, 0.0000000000000000000, 0.0000000000000000000 ) ) ;
#74 = DESIGN_CONTEXT ( 'detailed design', #120, 'design' ) ;
#75 = COORDINATED_UNIVERSAL_TIME_OFFSET ( 5, 0, .BEHIND. ) ;
#76 = CC_DESIGN_DATE_AND_TIME_ASSIGNMENT ( #12, #16, ( #9 ) ) ;
#77 = CC_DESIGN_DATE_AND_TIME_ASSIGNMENT ( #272, #218, ( #43 ) ) ;
#78 = UNCERTAINTY_MEASURE_WITH_UNIT (LENGTH_MEASURE( 1.000000000000000100E-005 ), #127, 'distance_accuracy_value', 'NONE');
#79 = CALENDAR_DATE ( 2017, 18, 7 ) ;
#80 = VECTOR ( 'NONE', #264, 1000.000000000000000 ) ;
#81 = CARTESIAN_POINT ( 'NONE',  ( 12.50000000000000000, -2.164890140588744600E-015, -17.67766952966377800 ) ) ;
#82 = APPROVAL_PERSON_ORGANIZATION ( #157, #185, #303 ) ;
#83 = PLANE ( 'NONE',  #139 ) ;
#84 = ORIENTED_EDGE ( 'NONE', *, *, #147, .T. ) ;
#85 = CARTESIAN_POINT ( 'NONE',  ( 12.50000000000000000, -2.164890140588744600E-015, -17.67766952966377800 ) ) ;
#86 = PRODUCT ( '25mm BEAMSPLITTER CUBE TS_35960', '25mm BEAMSPLITTER CUBE TS_35960', '', ( #4 ) ) ;
#87 = DATE_AND_TIME ( #159, #247 ) ;
#88 = CALENDAR_DATE ( 2017, 18, 7 ) ;
#89 = CALENDAR_DATE ( 2017, 18, 7 ) ;
#90 = ORIENTED_EDGE ( 'NONE', *, *, #266, .F. ) ;
#91 = PRODUCT_DEFINITION_FORMATION_WITH_SPECIFIED_SOURCE ( 'ANY', '', #86, .NOT_KNOWN. ) ;
#92 = APPROVAL ( #48, 'UNSPECIFIED' ) ;
#93 = SHAPE_REPRESENTATION ( '25x25 Right Angle Prism Master', ( #158 ), #119 ) ;
#94 = PERSON_AND_ORGANIZATION_ROLE ( 'classification_officer' ) ;
#95 = DIRECTION ( 'NONE',  ( -5.551115123125782700E-017, 0.0000000000000000000, -1.000000000000000200 ) ) ;
#96 =( NAMED_UNIT ( * ) PLANE_ANGLE_UNIT ( ) SI_UNIT ( $, .RADIAN. ) );
#97 = PERSON_AND_ORGANIZATION ( #114, #256 ) ;
#98 = PERSON_AND_ORGANIZATION_ROLE ( 'creator' ) ;
#99 = APPROVAL_STATUS ( 'not_yet_approved' ) ;
#100 = LOCAL_TIME ( 9, 27, 15.00000000000000000, #173 ) ;
#101 = DIRECTION ( 'NONE',  ( 0.0000000000000000000, 0.0000000000000000000, -1.000000000000000000 ) ) ;
#102 = AXIS2_PLACEMENT_3D ( 'NONE', #339, #35, #164 ) ;
#103 = DATE_AND_TIME ( #174, #261 ) ;
#104 = APPROVAL_DATE_TIME ( #179, #92 ) ;
#105 = DIRECTION ( 'NONE',  ( 0.0000000000000000000, 0.7071067811865439100, -0.7071067811865512400 ) ) ;
#106 = PLANE ( 'NONE',  #65 ) ;
#107 = DIRECTION ( 'NONE',  ( 0.0000000000000000000, -0.7071067811865439100, 0.7071067811865512400 ) ) ;
#108 = PERSON_AND_ORGANIZATION ( #114, #256 ) ;
#109 = APPROVAL ( #214, 'UNSPECIFIED' ) ;
#110 = VERTEX_POINT ( 'NONE', #81 ) ;
#111 = CC_DESIGN_APPROVAL ( #92, ( #43 ) ) ;
#112 = EDGE_LOOP ( 'NONE', ( #14, #90, #292 ) ) ;
#113 = ORIENTED_EDGE ( 'NONE', *, *, #147, .F. ) ;
#114 = PERSON ( 'UNSPECIFIED', 'UNSPECIFIED', 'UNSPECIFIED', ('UNSPECIFIED'), ('UNSPECIFIED'), ('UNSPECIFIED') ) ;
#115 = APPROVAL_PERSON_ORGANIZATION ( #188, #92, #248 ) ;
#116 = DIRECTION ( 'NONE',  ( 1.000000000000000000, 0.0000000000000000000, 0.0000000000000000000 ) ) ;
#117 = LOCAL_TIME ( 9, 27, 15.00000000000000000, #192 ) ;
#118 = DESIGN_CONTEXT ( 'detailed design', #45, 'design' ) ;
#119 =( GEOMETRIC_REPRESENTATION_CONTEXT ( 3 ) GLOBAL_UNCERTAINTY_ASSIGNED_CONTEXT ( ( #217 ) ) GLOBAL_UNIT_ASSIGNED_CONTEXT ( ( #333, #96, #263 ) ) REPRESENTATION_CONTEXT ( 'NONE', 'WORKASPACE' ) );
#120 = APPLICATION_CONTEXT ( 'configuration controlled 3d designs of mechanical parts and assemblies' ) ;
#121 = SHAPE_REPRESENTATION_RELATIONSHIP ( 'NONE' , 'NONE' ,  #93, #144 ) ;
#122 = APPROVAL_STATUS ( 'not_yet_approved' ) ;
#123 = CARTESIAN_POINT ( 'NONE',  ( 0.0000000000000000000, 0.0000000000000000000, 0.0000000000000000000 ) ) ;
#124 = COORDINATED_UNIVERSAL_TIME_OFFSET ( 5, 0, .BEHIND. ) ;
#125 = APPROVAL_STATUS ( 'not_yet_approved' ) ;
#126 = ORIENTED_EDGE ( 'NONE', *, *, #305, .F. ) ;
#127 =( LENGTH_UNIT ( ) NAMED_UNIT ( * ) SI_UNIT ( .MILLI., .METRE. ) );
#128 = DATE_TIME_ROLE ( 'classification_date' ) ;
#129 = CALENDAR_DATE ( 2017, 18, 7 ) ;
#130 = ORGANIZATION ( 'NAUO-ORG2', 'UNSPECIFIED', 'UNSPECIFIED' ) ;
#131 = CC_DESIGN_APPROVAL ( #109, ( #91 ) ) ;
#132 = CC_DESIGN_SECURITY_CLASSIFICATION ( #43, ( #316 ) ) ;
#133 = DATE_AND_TIME ( #215, #291 ) ;
#134 = PLANE ( 'NONE',  #258 ) ;
#135 = PERSON_AND_ORGANIZATION ( #114, #256 ) ;
#136 = DIRECTION ( 'NONE',  ( -1.000000000000000000, 0.0000000000000000000, 0.0000000000000000000 ) ) ;
#137 = COORDINATED_UNIVERSAL_TIME_OFFSET ( 5, 0, .BEHIND. ) ;
#138 = PLANE ( 'NONE',  #102 ) ;
#139 = AXIS2_PLACEMENT_3D ( 'NONE', #58, #260, #313 ) ;
#140 = VECTOR ( 'NONE', #54, 1000.000000000000000 ) ;
#141 = ADVANCED_FACE ( 'NONE', ( #175 ), #106, .F. ) ;
#142 = CARTESIAN_POINT ( 'NONE',  ( 0.0000000000000000000, 0.0000000000000000000, 0.0000000000000000000 ) ) ;
#143 = PERSON_AND_ORGANIZATION ( #114, #256 ) ;
#144 = ADVANCED_BREP_SHAPE_REPRESENTATION ( '', ( #280, #158 ), #119 ) ;
#145 = PRODUCT ( '25x25 Right Angle Prism Master', '25x25 Right Angle Prism Master', '', ( #17 ) ) ;
#146 = CARTESIAN_POINT ( 'NONE',  ( 12.50000000000000000, 0.0000000000000000000, 17.67766952966377800 ) ) ;
#147 = EDGE_CURVE ( 'NONE', #220, #3, #224, .T. ) ;
#148 = COORDINATED_UNIVERSAL_TIME_OFFSET ( 5, 0, .BEHIND. ) ;
#149 = FACE_OUTER_BOUND ( 'NONE', #112, .T. ) ;
#150 = CALENDAR_DATE ( 2017, 18, 7 ) ;
#151 = CARTESIAN_POINT ( 'NONE',  ( -12.50000000000000000, 17.67766952966358900, -1.112641391681767300E-015 ) ) ;
#152 = CC_DESIGN_PERSON_AND_ORGANIZATION_ASSIGNMENT ( #135, #245, ( #91 ) ) ;
#153 = PRODUCT_RELATED_PRODUCT_CATEGORY ( 'detail', '', ( #145 ) ) ;
#154 = APPROVAL_STATUS ( 'not_yet_approved' ) ;
#155 = PERSON_AND_ORGANIZATION_ROLE ( 'creator' ) ;
#156 = LOCAL_TIME ( 9, 27, 15.00000000000000000, #240 ) ;
#157 = PERSON_AND_ORGANIZATION ( #172, #241 ) ;
#158 = AXIS2_PLACEMENT_3D ( 'NONE', #142, #13, #116 ) ;
#159 = CALENDAR_DATE ( 2017, 18, 7 ) ;
#160 = EDGE_CURVE ( 'NONE', #190, #205, #223, .T. ) ;
#161 = CARTESIAN_POINT ( 'NONE',  ( 12.50000000000000000, -2.164890140588744600E-015, -17.67766952966377800 ) ) ;
#162 = LOCAL_TIME ( 9, 27, 15.00000000000000000, #250 ) ;
#163 = LINE ( 'NONE', #197, #140 ) ;
#164 = DIRECTION ( 'NONE',  ( 0.0000000000000000000, 6.123233995736767300E-017, 1.000000000000000000 ) ) ;
#165 = ADVANCED_FACE ( 'NONE', ( #207 ), #138, .F. ) ;
#166 = LOCAL_TIME ( 9, 27, 15.00000000000000000, #253 ) ;
#167 = CARTESIAN_POINT ( 'NONE',  ( -12.50000000000000000, 0.0000000000000000000, 17.67766952966377800 ) ) ;
#168 = DIRECTION ( 'NONE',  ( 0.0000000000000000000, 0.0000000000000000000, 1.000000000000000000 ) ) ;
#169 = CC_DESIGN_PERSON_AND_ORGANIZATION_ASSIGNMENT ( #64, #68, ( #91 ) ) ;
#170 = CC_DESIGN_SECURITY_CLASSIFICATION ( #331, ( #360 ) ) ;
#171 = PERSON_AND_ORGANIZATION ( #114, #256 ) ;
#172 = PERSON ( 'NAUO-PER1', 'UNSPECIFIED', 'UNSPECIFIED', ('UNSPECIFIED'), ('UNSPECIFIED'), ('UNSPECIFIED') ) ;
#173 = COORDINATED_UNIVERSAL_TIME_OFFSET ( 5, 0, .BEHIND. ) ;
#174 = CALENDAR_DATE ( 2017, 18, 7 ) ;
#175 = FACE_OUTER_BOUND ( 'NONE', #273, .T. ) ;
#176 = PERSON_AND_ORGANIZATION_ROLE ( 'creator' ) ;
#177 = APPLICATION_PROTOCOL_DEFINITION ( 'international standard', 'config_control_design', 1994, #353 ) ;
#178 = SECURITY_CLASSIFICATION_LEVEL ( 'unclassified' ) ;
#179 = DATE_AND_TIME ( #265, #335 ) ;
#180 = EDGE_CURVE ( 'NONE', #220, #315, #350, .T. ) ;
#181 = SECURITY_CLASSIFICATION_LEVEL ( 'unclassified' ) ;
#182 = PRODUCT_DEFINITION_SHAPE ( 'NONE', 'NONE',  #361 ) ;
#183 = PERSON_AND_ORGANIZATION ( #114, #256 ) ;
#184 = SECURITY_CLASSIFICATION ( '', '', #270 ) ;
#185 = APPROVAL ( #99, 'UNKNOWN' ) ;
#186 = ORIENTED_EDGE ( 'NONE', *, *, #229, .F. ) ;
#187 = LINE ( 'NONE', #85, #55 ) ;
#188 = PERSON_AND_ORGANIZATION ( #114, #256 ) ;
#189 = CARTESIAN_POINT ( 'NONE',  ( -12.50000000000000000, 0.0000000000000000000, 17.67766952966377800 ) ) ;
#190 = VERTEX_POINT ( 'NONE', #167 ) ;
#191 = DIRECTION ( 'NONE',  ( 0.0000000000000000000, 0.7071067811865439100, 0.7071067811865512400 ) ) ;
#192 = COORDINATED_UNIVERSAL_TIME_OFFSET ( 5, 0, .BEHIND. ) ;
#193 = CARTESIAN_POINT ( 'NONE',  ( 12.50000000000000000, 0.0000000000000000000, 17.67766952966377800 ) ) ;
#194 = DIRECTION ( 'NONE',  ( 0.0000000000000000000, -0.7071067811865439100, 0.7071067811865512400 ) ) ;
#195 = AXIS2_PLACEMENT_3D ( 'NONE', #345, #37, #239 ) ;
#196 = CARTESIAN_POINT ( 'NONE',  ( -12.50000000000000000, -2.164890140588744600E-015, -17.67766952966377800 ) ) ;
#197 = CARTESIAN_POINT ( 'NONE',  ( 12.50000000000000000, 0.0000000000000000000, 17.67766952966377800 ) ) ;
#198 = EDGE_LOOP ( 'NONE', ( #208, #186, #211, #336 ) ) ;
#199 = EDGE_LOOP ( 'NONE', ( #283, #126, #113, #244 ) ) ;
#200 = PERSON_AND_ORGANIZATION ( #114, #256 ) ;
#201 = PERSON ( 'NAUO-PER2', 'UNSPECIFIED', 'UNSPECIFIED', ('UNSPECIFIED'), ('UNSPECIFIED'), ('UNSPECIFIED') ) ;
#202 = EDGE_CURVE ( 'NONE', #315, #190, #341, .T. ) ;
#203 = CARTESIAN_POINT ( 'NONE',  ( 0.0000000000000000000, 0.0000000000000000000, 0.0000000000000000000 ) ) ;
#204 = LOCAL_TIME ( 9, 27, 15.00000000000000000, #282 ) ;
#205 = VERTEX_POINT ( 'NONE', #196 ) ;
#206 = APPROVAL_DATE_TIME ( #286, #308 ) ;
#207 = FACE_OUTER_BOUND ( 'NONE', #198, .T. ) ;
#208 = ORIENTED_EDGE ( 'NONE', *, *, #160, .T. ) ;
#209 = LINE ( 'NONE', #59, #46 ) ;
#210 = CC_DESIGN_PERSON_AND_ORGANIZATION_ASSIGNMENT ( #358, #94, ( #184 ) ) ;
#211 = ORIENTED_EDGE ( 'NONE', *, *, #251, .F. ) ;
#212 = CC_DESIGN_APPROVAL ( #185, ( #331 ) ) ;
#213 = VECTOR ( 'NONE', #194, 999.9999999999998900 ) ;
#214 = APPROVAL_STATUS ( 'not_yet_approved' ) ;
#215 = CALENDAR_DATE ( 2017, 18, 7 ) ;
#216 = PERSON_AND_ORGANIZATION_ROLE ( 'design_owner' ) ;
#217 = UNCERTAINTY_MEASURE_WITH_UNIT (LENGTH_MEASURE( 1.000000000000000100E-005 ), #333, 'distance_accuracy_value', 'NONE');
#218 = DATE_TIME_ROLE ( 'classification_date' ) ;
#219 = APPROVAL_DATE_TIME ( #293, #109 ) ;
#220 = VERTEX_POINT ( 'NONE', #8 ) ;
#221 = APPROVAL_ROLE ( '' ) ;
#222 = DATE_AND_TIME ( #295, #7 ) ;
#223 = LINE ( 'NONE', #189, #39 ) ;
#224 = LINE ( 'NONE', #337, #67 ) ;
#225 = AXIS2_PLACEMENT_3D ( 'NONE', #203, #249, #101 ) ;
#226 = ORIENTED_EDGE ( 'NONE', *, *, #180, .F. ) ;
#227 = DIRECTION ( 'NONE',  ( 0.0000000000000000000, -0.7071067811865512400, 0.7071067811865439100 ) ) ;
#228 = APPROVAL_PERSON_ORGANIZATION ( #301, #109, #44 ) ;
#229 = EDGE_CURVE ( 'NONE', #110, #205, #231, .T. ) ;
#230 = CARTESIAN_POINT ( 'NONE',  ( 12.50000000000000000, 17.67766952966358900, -1.112641391681767300E-015 ) ) ;
#231 = LINE ( 'NONE', #234, #80 ) ;
#232 = CARTESIAN_POINT ( 'NONE',  ( -12.50000000000000000, 17.67766952966358900, -1.112641391681767300E-015 ) ) ;
#233 = DIRECTION ( 'NONE',  ( 1.000000000000000000, 0.0000000000000000000, 0.0000000000000000000 ) ) ;
#234 = CARTESIAN_POINT ( 'NONE',  ( 12.50000000000000000, -2.164890140588744600E-015, -17.67766952966377800 ) ) ;
#235 = APPLICATION_CONTEXT ( 'configuration controlled 3d designs of mechanical parts and assemblies' ) ;
#236 = VECTOR ( 'NONE', #348, 1000.000000000000000 ) ;
#237 = CC_DESIGN_DATE_AND_TIME_ASSIGNMENT ( #53, #299, ( #184 ) ) ;
#238 = CC_DESIGN_DATE_AND_TIME_ASSIGNMENT ( #320, #128, ( #331 ) ) ;
#239 = DIRECTION ( 'NONE',  ( 1.000000000000000000, 0.0000000000000000000, 0.0000000000000000000 ) ) ;
#240 = COORDINATED_UNIVERSAL_TIME_OFFSET ( 5, 0, .BEHIND. ) ;
#241 = ORGANIZATION ( 'NAUO-ORG1', 'UNSPECIFIED', 'UNSPECIFIED' ) ;
#242 = PRODUCT_DEFINITION_SHAPE ( 'NONE', 'NONE',  #9 ) ;
#243 = AXIS2_PLACEMENT_3D ( 'NONE', #73, #304, #95 ) ;
#244 = ORIENTED_EDGE ( 'NONE', *, *, #180, .T. ) ;
#245 = PERSON_AND_ORGANIZATION_ROLE ( 'creator' ) ;
#246 = APPLICATION_PROTOCOL_DEFINITION ( 'international standard', 'config_control_design', 1994, #45 ) ;
#247 = LOCAL_TIME ( 9, 27, 15.00000000000000000, #318 ) ;
#248 = APPROVAL_ROLE ( '' ) ;
#249 = DIRECTION ( 'NONE',  ( 1.000000000000000000, 0.0000000000000000000, 0.0000000000000000000 ) ) ;
#250 = COORDINATED_UNIVERSAL_TIME_OFFSET ( 5, 0, .BEHIND. ) ;
#251 = EDGE_CURVE ( 'NONE', #3, #110, #163, .T. ) ;
#252 = PERSON_AND_ORGANIZATION_ROLE ( 'classification_officer' ) ;
#253 = COORDINATED_UNIVERSAL_TIME_OFFSET ( 5, 0, .BEHIND. ) ;
#254 = APPROVAL ( #122, 'UNSPECIFIED' ) ;
#255 = CC_DESIGN_PERSON_AND_ORGANIZATION_ASSIGNMENT ( #157, #329, ( #331 ) ) ;
#256 = ORGANIZATION ( 'UNSPECIFIED', 'UNSPECIFIED', '' ) ;
#257 = APPROVAL ( #70, 'UNSPECIFIED' ) ;
#258 = AXIS2_PLACEMENT_3D ( 'NONE', #230, #259, #105 ) ;
#259 = DIRECTION ( 'NONE',  ( 0.0000000000000000000, -0.7071067811865512400, -0.7071067811865439100 ) ) ;
#260 = DIRECTION ( 'NONE',  ( -1.000000000000000000, 0.0000000000000000000, 0.0000000000000000000 ) ) ;
#261 = LOCAL_TIME ( 9, 27, 15.00000000000000000, #330 ) ;
#262 =( GEOMETRIC_REPRESENTATION_CONTEXT ( 3 ) GLOBAL_UNCERTAINTY_ASSIGNED_CONTEXT ( ( #78 ) ) GLOBAL_UNIT_ASSIGNED_CONTEXT ( ( #127, #328, #302 ) ) REPRESENTATION_CONTEXT ( 'NONE', 'WORKASPACE' ) );
#263 =( NAMED_UNIT ( * ) SI_UNIT ( $, .STERADIAN. ) SOLID_ANGLE_UNIT ( ) );
#264 = DIRECTION ( 'NONE',  ( -1.000000000000000000, -0.0000000000000000000, -0.0000000000000000000 ) ) ;
#265 = CALENDAR_DATE ( 2017, 18, 7 ) ;
#266 = EDGE_CURVE ( 'NONE', #205, #315, #209, .T. ) ;
#267 = APPROVAL_DATE_TIME ( #338, #254 ) ;
#268 = CC_DESIGN_APPROVAL ( #254, ( #184 ) ) ;
#269 = SECURITY_CLASSIFICATION ( '', '', #181 ) ;
#270 = SECURITY_CLASSIFICATION_LEVEL ( 'unclassified' ) ;
#271 = APPROVAL_ROLE ( '' ) ;
#272 = DATE_AND_TIME ( #343, #51 ) ;
#273 = EDGE_LOOP ( 'NONE', ( #319, #226, #359, #36 ) ) ;
#274 = SECURITY_CLASSIFICATION_LEVEL ( 'unclassified' ) ;
#275 = APPROVAL_PERSON_ORGANIZATION ( #346, #254, #325 ) ;
#276 = CONTEXT_DEPENDENT_SHAPE_REPRESENTATION ( #357, #182 ) ;
#277 = CC_DESIGN_PERSON_AND_ORGANIZATION_ASSIGNMENT ( #321, #98, ( #322 ) ) ;
#278 = CLOSED_SHELL ( 'NONE', ( #33, #165, #141, #287, #57 ) ) ;
#279 = PERSON_AND_ORGANIZATION ( #114, #256 ) ;
#280 = MANIFOLD_SOLID_BREP ( 'Extrude1', #278 ) ;
#281 = EDGE_CURVE ( 'NONE', #110, #220, #187, .T. ) ;
#282 = COORDINATED_UNIVERSAL_TIME_OFFSET ( 5, 0, .BEHIND. ) ;
#283 = ORIENTED_EDGE ( 'NONE', *, *, #202, .T. ) ;
#284 = DIRECTION ( 'NONE',  ( 0.0000000000000000000, -6.123233995736767300E-017, -1.000000000000000000 ) ) ;
#285 = PRODUCT_DEFINITION_SHAPE ( 'NONE', 'NONE',  #360 ) ;
#286 = DATE_AND_TIME ( #150, #66 ) ;
#287 = ADVANCED_FACE ( 'NONE', ( #52 ), #83, .F. ) ;
#288 = APPLICATION_PROTOCOL_DEFINITION ( 'international standard', 'config_control_design', 1994, #235 ) ;
#289 = CC_DESIGN_SECURITY_CLASSIFICATION ( #184, ( #91 ) ) ;
#290 = CC_DESIGN_SECURITY_CLASSIFICATION ( #269, ( #361 ) ) ;
#291 = LOCAL_TIME ( 9, 27, 15.00000000000000000, #2 ) ;
#292 = ORIENTED_EDGE ( 'NONE', *, *, #160, .F. ) ;
#293 = DATE_AND_TIME ( #5, #72 ) ;
#294 = ORIENTED_EDGE ( 'NONE', *, *, #251, .T. ) ;
#295 = CALENDAR_DATE ( 2017, 18, 7 ) ;
#296 = AXIS2_PLACEMENT_3D ( 'NONE', #123, #168, #233 ) ;
#297 = CC_DESIGN_DATE_AND_TIME_ASSIGNMENT ( #22, #300, ( #322 ) ) ;
#298 = PERSON_AND_ORGANIZATION_ROLE ( 'design_owner' ) ;
#299 = DATE_TIME_ROLE ( 'classification_date' ) ;
#300 = DATE_TIME_ROLE ( 'creation_date' ) ;
#301 = PERSON_AND_ORGANIZATION ( #114, #256 ) ;
#302 =( NAMED_UNIT ( * ) SI_UNIT ( $, .STERADIAN. ) SOLID_ANGLE_UNIT ( ) );
#303 = APPROVAL_ROLE ( '' ) ;
#304 = DIRECTION ( 'NONE',  ( -1.000000000000000200, 0.0000000000000000000, 5.551115123125782700E-017 ) ) ;
#305 = EDGE_CURVE ( 'NONE', #3, #190, #317, .T. ) ;
#306 = ITEM_DEFINED_TRANSFORMATION ( 'NONE', 'NONE', #243,  #158 ) ;
#307 = PRODUCT_RELATED_PRODUCT_CATEGORY ( 'detail', '', ( #86 ) ) ;
#308 = APPROVAL ( #20, 'UNKNOWN' ) ;
#309 = SHAPE_REPRESENTATION ( '25mm BEAMSPLITTER CUBE TS_35960', ( #296, #225, #243 ), #262 ) ;
#310 = PERSON_AND_ORGANIZATION ( #114, #256 ) ;
#311 = APPROVAL_DATE_TIME ( #21, #185 ) ;
#312 = DIRECTION ( 'NONE',  ( 0.0000000000000000000, 0.0000000000000000000, 1.000000000000000000 ) ) ;
#313 = DIRECTION ( 'NONE',  ( 0.0000000000000000000, 0.0000000000000000000, 1.000000000000000000 ) ) ;
#314 = CC_DESIGN_PERSON_AND_ORGANIZATION_ASSIGNMENT ( #183, #216, ( #145 ) ) ;
#315 = VERTEX_POINT ( 'NONE', #151 ) ;
#316 = PRODUCT_DEFINITION_FORMATION_WITH_SPECIFIED_SOURCE ( 'ANY', '', #145, .NOT_KNOWN. ) ;
#317 = LINE ( 'NONE', #146, #236 ) ;
#318 = COORDINATED_UNIVERSAL_TIME_OFFSET ( 5, 0, .BEHIND. ) ;
#319 = ORIENTED_EDGE ( 'NONE', *, *, #266, .T. ) ;
#320 = DATE_AND_TIME ( #27, #100 ) ;
#321 = PERSON_AND_ORGANIZATION ( #114, #256 ) ;
#322 = PRODUCT_DEFINITION ( 'UNKNOWN', '', #316, #118 ) ;
#323 = APPLICATION_PROTOCOL_DEFINITION ( 'international standard', 'config_control_design', 1994, #120 ) ;
#324 = CC_DESIGN_APPROVAL ( #308, ( #269 ) ) ;
#325 = APPROVAL_ROLE ( '' ) ;
#326 = SHAPE_DEFINITION_REPRESENTATION ( #29, #93 ) ;
#327 = APPROVAL_ROLE ( '' ) ;
#328 =( NAMED_UNIT ( * ) PLANE_ANGLE_UNIT ( ) SI_UNIT ( $, .RADIAN. ) );
#329 = PERSON_AND_ORGANIZATION_ROLE ( 'classification_officer' ) ;
#330 = COORDINATED_UNIVERSAL_TIME_OFFSET ( 5, 0, .BEHIND. ) ;
#331 = SECURITY_CLASSIFICATION ( '', '', #274 ) ;
#332 = APPROVAL ( #125, 'UNSPECIFIED' ) ;
#333 =( LENGTH_UNIT ( ) NAMED_UNIT ( * ) SI_UNIT ( .MILLI., .METRE. ) );
#334 = CARTESIAN_POINT ( 'NONE',  ( -12.50000000000000000, 17.67766952966358600, -3.469446951953614200E-015 ) ) ;
#335 = LOCAL_TIME ( 9, 27, 15.00000000000000000, #47 ) ;
#336 = ORIENTED_EDGE ( 'NONE', *, *, #305, .T. ) ;
#337 = CARTESIAN_POINT ( 'NONE',  ( 12.50000000000000000, 17.67766952966358900, -1.112641391681767300E-015 ) ) ;
#338 = DATE_AND_TIME ( #50, #117 ) ;
#339 = CARTESIAN_POINT ( 'NONE',  ( 12.50000000000000000, 0.0000000000000000000, 17.67766952966377800 ) ) ;
#340 = DIRECTION ( 'NONE',  ( 0.0000000000000000000, 0.7071067811865439100, 0.7071067811865512400 ) ) ;
#341 = LINE ( 'NONE', #232, #213 ) ;
#342 = CC_DESIGN_DATE_AND_TIME_ASSIGNMENT ( #222, #49, ( #269 ) ) ;
#343 = CALENDAR_DATE ( 2017, 18, 7 ) ;
#344 = ORIENTED_EDGE ( 'NONE', *, *, #281, .T. ) ;
#345 = CARTESIAN_POINT ( 'NONE',  ( 0.0000000000000000000, 0.0000000000000000000, 0.0000000000000000000 ) ) ;
#346 = PERSON_AND_ORGANIZATION ( #114, #256 ) ;
#347 = APPROVAL_PERSON_ORGANIZATION ( #56, #308, #221 ) ;
#348 = DIRECTION ( 'NONE',  ( -1.000000000000000000, -0.0000000000000000000, -0.0000000000000000000 ) ) ;
#349 = CC_DESIGN_PERSON_AND_ORGANIZATION_ASSIGNMENT ( #171, #298, ( #86 ) ) ;
#350 = LINE ( 'NONE', #6, #355 ) ;
#351 = CC_DESIGN_APPROVAL ( #332, ( #316 ) ) ;
#352 = APPROVAL_ROLE ( '' ) ;
#353 = APPLICATION_CONTEXT ( 'configuration controlled 3d designs of mechanical parts and assemblies' ) ;
#354 = PERSON_AND_ORGANIZATION ( #114, #256 ) ;
#355 = VECTOR ( 'NONE', #34, 1000.000000000000000 ) ;
#356 = PERSON_AND_ORGANIZATION_ROLE ( 'design_supplier' ) ;
#357 =( REPRESENTATION_RELATIONSHIP ('NONE','NONE', #309, #93 ) REPRESENTATION_RELATIONSHIP_WITH_TRANSFORMATION ( #306 )SHAPE_REPRESENTATION_RELATIONSHIP( ) );
#358 = PERSON_AND_ORGANIZATION ( #114, #256 ) ;
#359 = ORIENTED_EDGE ( 'NONE', *, *, #281, .F. ) ;
#360 = NEXT_ASSEMBLY_USAGE_OCCURRENCE ( 'NAUO1', ' ', ' ', #9, #322, $ ) ;
#361 = NEXT_ASSEMBLY_USAGE_OCCURRENCE ( 'NAUO2', ' ', ' ', #9, #322, $ ) ;
ENDSEC;
END-ISO-10303-21;
