ISO-10303-21;
HEADER;
FILE_DESCRIPTION (( 'STEP AP203' ),
    '1' );
FILE_NAME ('Web Model 17227_17228.step',
    '2021-04-08T13:59:58',
    ( '' ),
    ( '' ),
    'SwSTEP 2.0',
    'SolidWorks 2018',
    '' );
FILE_SCHEMA (( 'CONFIG_CONTROL_DESIGN' ));
ENDSEC;

DATA;
#1 = DIRECTION ( 'NONE',  ( 0.000000000000000000, 0.000000000000000000, 1.000000000000000000 ) ) ;
#2 = ORIENTED_EDGE ( 'NONE', *, *, #129, .T. ) ;
#3 = CARTESIAN_POINT ( 'NONE',  ( 9.999999999999998224, 1.224646799147353059E-15, 1.000000000000000000 ) ) ;
#4 = MECHANICAL_CONTEXT ( 'NONE', #47, 'mechanical' ) ;
#5 = PERSON_AND_ORGANIZATION_ROLE ( 'classification_officer' ) ;
#6 = CARTESIAN_POINT ( 'NONE',  ( 0.000000000000000000, 0.000000000000000000, 1.000000000000000000 ) ) ;
#7 = PERSON_AND_ORGANIZATION ( #37, #145 ) ;
#8 = APPROVAL_ROLE ( '' ) ;
#9 = FACE_OUTER_BOUND ( 'NONE', #46, .T. ) ;
#10 = COORDINATED_UNIVERSAL_TIME_OFFSET ( 5, 0, .BEHIND. ) ;
#11 = PLANE ( 'NONE',  #15 ) ;
#12 = ADVANCED_FACE ( 'NONE', ( #9 ), #105, .T. ) ;
#13 = APPROVAL ( #59, 'UNSPECIFIED' ) ;
#14 = DIRECTION ( 'NONE',  ( -1.000000000000000000, 0.000000000000000000, 0.000000000000000000 ) ) ;
#15 = AXIS2_PLACEMENT_3D ( 'NONE', #111, #90, #160 ) ;
#16 = PERSON_AND_ORGANIZATION ( #37, #145 ) ;
#17 = DESIGN_CONTEXT ( 'detailed design', #29, 'design' ) ;
#18 = FACE_OUTER_BOUND ( 'NONE', #150, .T. ) ;
#19 = DATE_AND_TIME ( #65, #175 ) ;
#20 = DATE_AND_TIME ( #79, #115 ) ;
#21 = FACE_OUTER_BOUND ( 'NONE', #51, .T. ) ;
#22 = PRODUCT ( 'Web Model 17227_17228', 'Web Model 17227_17228', '', ( #4 ) ) ;
#23 = CC_DESIGN_PERSON_AND_ORGANIZATION_ASSIGNMENT ( #7, #116, ( #173 ) ) ;
#24 = CARTESIAN_POINT ( 'NONE',  ( 9.999999999999998224, 1.224646799147353059E-15, 0.000000000000000000 ) ) ;
#25 = ADVANCED_FACE ( 'NONE', ( #18 ), #133, .F. ) ;
#26 = VERTEX_POINT ( 'NONE', #3 ) ;
#27 = APPROVAL_PERSON_ORGANIZATION ( #106, #13, #8 ) ;
#28 = APPROVAL ( #124, 'UNSPECIFIED' ) ;
#29 = APPLICATION_CONTEXT ( 'configuration controlled 3d designs of mechanical parts and assemblies' ) ;
#30 = APPROVAL_ROLE ( '' ) ;
#31 = CARTESIAN_POINT ( 'NONE',  ( 0.000000000000000000, 0.000000000000000000, 1.000000000000000000 ) ) ;
#32 = CC_DESIGN_PERSON_AND_ORGANIZATION_ASSIGNMENT ( #142, #117, ( #22 ) ) ;
#33 = VERTEX_POINT ( 'NONE', #55 ) ;
#34 = VERTEX_POINT ( 'NONE', #24 ) ;
#35 = AXIS2_PLACEMENT_3D ( 'NONE', #119, #156, #122 ) ;
#36 = ORIENTED_EDGE ( 'NONE', *, *, #45, .T. ) ;
#37 = PERSON ( 'UNSPECIFIED', 'UNSPECIFIED', 'UNSPECIFIED', ('UNSPECIFIED'), ('UNSPECIFIED'), ('UNSPECIFIED') ) ;
#38 = CC_DESIGN_APPROVAL ( #28, ( #107 ) ) ;
#39 = AXIS2_PLACEMENT_3D ( 'NONE', #48, #147, #92 ) ;
#40 = DIRECTION ( 'NONE',  ( -0.000000000000000000, -0.000000000000000000, -1.000000000000000000 ) ) ;
#41 = CARTESIAN_POINT ( 'NONE',  ( 0.000000000000000000, 0.000000000000000000, 0.000000000000000000 ) ) ;
#42 = CIRCLE ( 'NONE', #165, 9.999999999999998224 ) ;
#43 = DATE_AND_TIME ( #74, #110 ) ;
#44 = PERSON_AND_ORGANIZATION_ROLE ( 'creator' ) ;
#45 = EDGE_CURVE ( 'NONE', #33, #34, #144, .T. ) ;
#46 = EDGE_LOOP ( 'NONE', ( #69, #68, #127, #36 ) ) ;
#47 = APPLICATION_CONTEXT ( 'configuration controlled 3d designs of mechanical parts and assemblies' ) ;
#48 = CARTESIAN_POINT ( 'NONE',  ( 0.000000000000000000, 0.000000000000000000, 1.000000000000000000 ) ) ;
#49 = VERTEX_POINT ( 'NONE', #84 ) ;
#50 = CC_DESIGN_PERSON_AND_ORGANIZATION_ASSIGNMENT ( #52, #57, ( #107 ) ) ;
#51 = EDGE_LOOP ( 'NONE', ( #149, #109, #157, #136 ) ) ;
#52 = PERSON_AND_ORGANIZATION ( #37, #145 ) ;
#53 =( GEOMETRIC_REPRESENTATION_CONTEXT ( 3 ) GLOBAL_UNCERTAINTY_ASSIGNED_CONTEXT ( ( #108 ) ) GLOBAL_UNIT_ASSIGNED_CONTEXT ( ( #75, #100, #135 ) ) REPRESENTATION_CONTEXT ( 'NONE', 'WORKASPACE' ) );
#54 = APPROVAL ( #88, 'UNSPECIFIED' ) ;
#55 = CARTESIAN_POINT ( 'NONE',  ( -9.999999999999998224, 0.000000000000000000, 0.000000000000000000 ) ) ;
#56 = EDGE_CURVE ( 'NONE', #49, #33, #141, .T. ) ;
#57 = PERSON_AND_ORGANIZATION_ROLE ( 'design_supplier' ) ;
#58 = LINE ( 'NONE', #86, #171 ) ;
#59 = APPROVAL_STATUS ( 'not_yet_approved' ) ;
#60 = APPLICATION_PROTOCOL_DEFINITION ( 'international standard', 'config_control_design', 1994, #29 ) ;
#61 = DIRECTION ( 'NONE',  ( 0.000000000000000000, 0.000000000000000000, 1.000000000000000000 ) ) ;
#62 = VECTOR ( 'NONE', #113, 1000.000000000000000 ) ;
#63 = EDGE_CURVE ( 'NONE', #26, #34, #58, .T. ) ;
#64 = SECURITY_CLASSIFICATION ( '', '', #72 ) ;
#65 = CALENDAR_DATE ( 2021, 8, 4 ) ;
#66 = CIRCLE ( 'NONE', #35, 9.999999999999998224 ) ;
#67 = LOCAL_TIME ( 9, 59, 58.00000000000000000, #10 ) ;
#68 = ORIENTED_EDGE ( 'NONE', *, *, #129, .F. ) ;
#69 = ORIENTED_EDGE ( 'NONE', *, *, #63, .F. ) ;
#70 = DIRECTION ( 'NONE',  ( -0.000000000000000000, -0.000000000000000000, -1.000000000000000000 ) ) ;
#71 = CARTESIAN_POINT ( 'NONE',  ( 0.000000000000000000, 0.000000000000000000, 0.000000000000000000 ) ) ;
#72 = SECURITY_CLASSIFICATION_LEVEL ( 'unclassified' ) ;
#73 = CC_DESIGN_PERSON_AND_ORGANIZATION_ASSIGNMENT ( #96, #44, ( #107 ) ) ;
#74 = CALENDAR_DATE ( 2021, 8, 4 ) ;
#75 =( LENGTH_UNIT ( ) NAMED_UNIT ( * ) SI_UNIT ( .MILLI., .METRE. ) );
#76 = EDGE_LOOP ( 'NONE', ( #2, #174 ) ) ;
#77 = DATE_AND_TIME ( #159, #67 ) ;
#78 = PRODUCT_RELATED_PRODUCT_CATEGORY ( 'detail', '', ( #22 ) ) ;
#79 = CALENDAR_DATE ( 2021, 8, 4 ) ;
#80 = FACE_OUTER_BOUND ( 'NONE', #76, .T. ) ;
#81 = CC_DESIGN_PERSON_AND_ORGANIZATION_ASSIGNMENT ( #148, #5, ( #64 ) ) ;
#82 = CYLINDRICAL_SURFACE ( 'NONE', #161, 9.999999999999998224 ) ;
#83 = COORDINATED_UNIVERSAL_TIME_OFFSET ( 5, 0, .BEHIND. ) ;
#84 = CARTESIAN_POINT ( 'NONE',  ( -9.999999999999998224, 0.000000000000000000, 1.000000000000000000 ) ) ;
#85 = ADVANCED_FACE ( 'NONE', ( #80 ), #11, .T. ) ;
#86 = CARTESIAN_POINT ( 'NONE',  ( 9.999999999999998224, 1.224646799147353059E-15, 1.000000000000000000 ) ) ;
#87 = APPROVAL_ROLE ( '' ) ;
#88 = APPROVAL_STATUS ( 'not_yet_approved' ) ;
#89 = PERSON_AND_ORGANIZATION ( #37, #145 ) ;
#90 = DIRECTION ( 'NONE',  ( 0.000000000000000000, 0.000000000000000000, 1.000000000000000000 ) ) ;
#91 = DIRECTION ( 'NONE',  ( 0.000000000000000000, 0.000000000000000000, 1.000000000000000000 ) ) ;
#92 = DIRECTION ( 'NONE',  ( 1.000000000000000000, 0.000000000000000000, 0.000000000000000000 ) ) ;
#93 = SHAPE_DEFINITION_REPRESENTATION ( #128, #134 ) ;
#94 = CIRCLE ( 'NONE', #39, 9.999999999999998224 ) ;
#95 = DATE_AND_TIME ( #130, #151 ) ;
#96 = PERSON_AND_ORGANIZATION ( #37, #145 ) ;
#97 = EDGE_CURVE ( 'NONE', #34, #33, #66, .T. ) ;
#98 = CARTESIAN_POINT ( 'NONE',  ( -9.999999999999998224, 0.000000000000000000, 1.000000000000000000 ) ) ;
#99 = AXIS2_PLACEMENT_3D ( 'NONE', #112, #143, #168 ) ;
#100 =( NAMED_UNIT ( * ) PLANE_ANGLE_UNIT ( ) SI_UNIT ( $, .RADIAN. ) );
#101 = DIRECTION ( 'NONE',  ( 1.000000000000000000, 0.000000000000000000, 0.000000000000000000 ) ) ;
#102 = DATE_TIME_ROLE ( 'creation_date' ) ;
#103 = APPLICATION_PROTOCOL_DEFINITION ( 'international standard', 'config_control_design', 1994, #47 ) ;
#104 = CC_DESIGN_SECURITY_CLASSIFICATION ( #64, ( #107 ) ) ;
#105 = CYLINDRICAL_SURFACE ( 'NONE', #140, 9.999999999999998224 ) ;
#106 = PERSON_AND_ORGANIZATION ( #37, #145 ) ;
#107 = PRODUCT_DEFINITION_FORMATION_WITH_SPECIFIED_SOURCE ( 'ANY', '', #22, .NOT_KNOWN. ) ;
#108 = UNCERTAINTY_MEASURE_WITH_UNIT (LENGTH_MEASURE( 1.000000000000000082E-05 ), #75, 'distance_accuracy_value', 'NONE');
#109 = ORIENTED_EDGE ( 'NONE', *, *, #63, .T. ) ;
#110 = LOCAL_TIME ( 9, 59, 58.00000000000000000, #83 ) ;
#111 = CARTESIAN_POINT ( 'NONE',  ( 0.000000000000000000, 0.000000000000000000, 1.000000000000000000 ) ) ;
#112 = CARTESIAN_POINT ( 'NONE',  ( 0.000000000000000000, 0.000000000000000000, 0.000000000000000000 ) ) ;
#113 = DIRECTION ( 'NONE',  ( -0.000000000000000000, -0.000000000000000000, -1.000000000000000000 ) ) ;
#114 = CLOSED_SHELL ( 'NONE', ( #154, #12, #85, #25 ) ) ;
#115 = LOCAL_TIME ( 9, 59, 58.00000000000000000, #121 ) ;
#116 = PERSON_AND_ORGANIZATION_ROLE ( 'creator' ) ;
#117 = PERSON_AND_ORGANIZATION_ROLE ( 'design_owner' ) ;
#118 = CC_DESIGN_APPROVAL ( #54, ( #64 ) ) ;
#119 = CARTESIAN_POINT ( 'NONE',  ( 0.000000000000000000, 0.000000000000000000, 0.000000000000000000 ) ) ;
#120 = ORIENTED_EDGE ( 'NONE', *, *, #97, .F. ) ;
#121 = COORDINATED_UNIVERSAL_TIME_OFFSET ( 5, 0, .BEHIND. ) ;
#122 = DIRECTION ( 'NONE',  ( 1.000000000000000000, 0.000000000000000000, 0.000000000000000000 ) ) ;
#123 = MANIFOLD_SOLID_BREP ( 'Boss-Extrude1', #114 ) ;
#124 = APPROVAL_STATUS ( 'not_yet_approved' ) ;
#125 = APPROVAL_PERSON_ORGANIZATION ( #89, #28, #87 ) ;
#126 = ORIENTED_EDGE ( 'NONE', *, *, #45, .F. ) ;
#127 = ORIENTED_EDGE ( 'NONE', *, *, #56, .T. ) ;
#128 = PRODUCT_DEFINITION_SHAPE ( 'NONE', 'NONE',  #173 ) ;
#129 = EDGE_CURVE ( 'NONE', #49, #26, #42, .T. ) ;
#130 = CALENDAR_DATE ( 2021, 8, 4 ) ;
#131 = DIRECTION ( 'NONE',  ( -1.000000000000000000, 0.000000000000000000, 0.000000000000000000 ) ) ;
#132 = APPROVAL_PERSON_ORGANIZATION ( #16, #54, #30 ) ;
#133 = PLANE ( 'NONE',  #99 ) ;
#134 = ADVANCED_BREP_SHAPE_REPRESENTATION ( 'Web Model 17227_17228', ( #123, #163 ), #53 ) ;
#135 =( NAMED_UNIT ( * ) SI_UNIT ( $, .STERADIAN. ) SOLID_ANGLE_UNIT ( ) );
#136 = ORIENTED_EDGE ( 'NONE', *, *, #56, .F. ) ;
#137 = DATE_TIME_ROLE ( 'classification_date' ) ;
#138 = APPROVAL_DATE_TIME ( #95, #28 ) ;
#139 = COORDINATED_UNIVERSAL_TIME_OFFSET ( 5, 0, .BEHIND. ) ;
#140 = AXIS2_PLACEMENT_3D ( 'NONE', #167, #70, #131 ) ;
#141 = LINE ( 'NONE', #98, #62 ) ;
#142 = PERSON_AND_ORGANIZATION ( #37, #145 ) ;
#143 = DIRECTION ( 'NONE',  ( 0.000000000000000000, 0.000000000000000000, 1.000000000000000000 ) ) ;
#144 = CIRCLE ( 'NONE', #158, 9.999999999999998224 ) ;
#145 = ORGANIZATION ( 'UNSPECIFIED', 'UNSPECIFIED', '' ) ;
#146 = CC_DESIGN_APPROVAL ( #13, ( #173 ) ) ;
#147 = DIRECTION ( 'NONE',  ( 0.000000000000000000, 0.000000000000000000, 1.000000000000000000 ) ) ;
#148 = PERSON_AND_ORGANIZATION ( #37, #145 ) ;
#149 = ORIENTED_EDGE ( 'NONE', *, *, #162, .F. ) ;
#150 = EDGE_LOOP ( 'NONE', ( #126, #120 ) ) ;
#151 = LOCAL_TIME ( 9, 59, 58.00000000000000000, #139 ) ;
#152 = CC_DESIGN_DATE_AND_TIME_ASSIGNMENT ( #43, #137, ( #64 ) ) ;
#153 = APPROVAL_DATE_TIME ( #19, #13 ) ;
#154 = ADVANCED_FACE ( 'NONE', ( #21 ), #82, .T. ) ;
#155 = CC_DESIGN_DATE_AND_TIME_ASSIGNMENT ( #20, #102, ( #173 ) ) ;
#156 = DIRECTION ( 'NONE',  ( 0.000000000000000000, 0.000000000000000000, 1.000000000000000000 ) ) ;
#157 = ORIENTED_EDGE ( 'NONE', *, *, #97, .T. ) ;
#158 = AXIS2_PLACEMENT_3D ( 'NONE', #41, #1, #166 ) ;
#159 = CALENDAR_DATE ( 2021, 8, 4 ) ;
#160 = DIRECTION ( 'NONE',  ( 1.000000000000000000, 0.000000000000000000, -0.000000000000000000 ) ) ;
#161 = AXIS2_PLACEMENT_3D ( 'NONE', #31, #170, #14 ) ;
#162 = EDGE_CURVE ( 'NONE', #26, #49, #94, .T. ) ;
#163 = AXIS2_PLACEMENT_3D ( 'NONE', #71, #61, #169 ) ;
#164 = APPROVAL_DATE_TIME ( #77, #54 ) ;
#165 = AXIS2_PLACEMENT_3D ( 'NONE', #6, #91, #101 ) ;
#166 = DIRECTION ( 'NONE',  ( 1.000000000000000000, 0.000000000000000000, 0.000000000000000000 ) ) ;
#167 = CARTESIAN_POINT ( 'NONE',  ( 0.000000000000000000, 0.000000000000000000, 1.000000000000000000 ) ) ;
#168 = DIRECTION ( 'NONE',  ( 1.000000000000000000, 0.000000000000000000, -0.000000000000000000 ) ) ;
#169 = DIRECTION ( 'NONE',  ( 1.000000000000000000, 0.000000000000000000, 0.000000000000000000 ) ) ;
#170 = DIRECTION ( 'NONE',  ( -0.000000000000000000, -0.000000000000000000, -1.000000000000000000 ) ) ;
#171 = VECTOR ( 'NONE', #40, 1000.000000000000000 ) ;
#172 = COORDINATED_UNIVERSAL_TIME_OFFSET ( 5, 0, .BEHIND. ) ;
#173 = PRODUCT_DEFINITION ( 'UNKNOWN', '', #107, #17 ) ;
#174 = ORIENTED_EDGE ( 'NONE', *, *, #162, .T. ) ;
#175 = LOCAL_TIME ( 9, 59, 58.00000000000000000, #172 ) ;
ENDSEC;
END-ISO-10303-21;
