ISO-10303-21;
HEADER;
FILE_DESCRIPTION (( 'STEP AP203' ),
    '1' );
FILE_NAME ('Web Model 32951_45640.step',
    '2017-04-10T16:26:49',
    ( '' ),
    ( '' ),
    'SwSTEP 2.0',
    'SolidWorks 2016',
    '' );
FILE_SCHEMA (( 'CONFIG_CONTROL_DESIGN' ));
ENDSEC;

DATA;
#1 = PLANE ( 'NONE',  #144 ) ;
#2 = EDGE_CURVE ( 'NONE', #54, #41, #38, .T. ) ;
#3 = PERSON_AND_ORGANIZATION_ROLE ( 'creator' ) ;
#4 = APPROVAL ( #151, 'UNSPECIFIED' ) ;
#5 =( NAMED_UNIT ( * ) SI_UNIT ( $, .STERADIAN. ) SOLID_ANGLE_UNIT ( ) );
#6 = CALENDAR_DATE ( 2017, 10, 4 ) ;
#7 = CIRCLE ( 'NONE', #48, 12.50000000000000000 ) ;
#8 = AXIS2_PLACEMENT_3D ( 'NONE', #16, #65, #116 ) ;
#9 = LOCAL_TIME ( 12, 26, 49.00000000000000000, #123 ) ;
#10 = DESIGN_CONTEXT ( 'detailed design', #70, 'design' ) ;
#11 = CYLINDRICAL_SURFACE ( 'NONE', #168, 12.50000000000000000 ) ;
#12 = LINE ( 'NONE', #92, #82 ) ;
#13 = PERSON_AND_ORGANIZATION_ROLE ( 'design_owner' ) ;
#14 = PLANE ( 'NONE',  #58 ) ;
#15 = AXIS2_PLACEMENT_3D ( 'NONE', #37, #96, #21 ) ;
#16 = CARTESIAN_POINT ( 'NONE',  ( 0.0000000000000000000, 0.0000000000000000000, 0.0000000000000000000 ) ) ;
#17 = SHAPE_DEFINITION_REPRESENTATION ( #128, #76 ) ;
#18 = FACE_OUTER_BOUND ( 'NONE', #156, .T. ) ;
#19 = PERSON_AND_ORGANIZATION_ROLE ( 'design_supplier' ) ;
#20 =( GEOMETRIC_REPRESENTATION_CONTEXT ( 3 ) GLOBAL_UNCERTAINTY_ASSIGNED_CONTEXT ( ( #47 ) ) GLOBAL_UNIT_ASSIGNED_CONTEXT ( ( #175, #28, #5 ) ) REPRESENTATION_CONTEXT ( 'NONE', 'WORKASPACE' ) );
#21 = DIRECTION ( 'NONE',  ( -1.000000000000000000, 0.0000000000000000000, 0.0000000000000000000 ) ) ;
#22 = FACE_OUTER_BOUND ( 'NONE', #63, .T. ) ;
#23 = ADVANCED_FACE ( 'NONE', ( #112 ), #1, .F. ) ;
#24 = CARTESIAN_POINT ( 'NONE',  ( -12.50000000000000000, 0.0000000000000000000, 0.0000000000000000000 ) ) ;
#25 = AXIS2_PLACEMENT_3D ( 'NONE', #90, #91, #129 ) ;
#26 = CYLINDRICAL_SURFACE ( 'NONE', #15, 12.50000000000000000 ) ;
#27 = DIRECTION ( 'NONE',  ( -0.0000000000000000000, -0.0000000000000000000, -1.000000000000000000 ) ) ;
#28 =( NAMED_UNIT ( * ) PLANE_ANGLE_UNIT ( ) SI_UNIT ( $, .RADIAN. ) );
#29 = DATE_AND_TIME ( #43, #124 ) ;
#30 = CC_DESIGN_PERSON_AND_ORGANIZATION_ASSIGNMENT ( #105, #13, ( #80 ) ) ;
#31 = LINE ( 'NONE', #40, #117 ) ;
#32 = PERSON_AND_ORGANIZATION_ROLE ( 'classification_officer' ) ;
#33 = DIRECTION ( 'NONE',  ( -1.000000000000000000, 0.0000000000000000000, 0.0000000000000000000 ) ) ;
#34 = FACE_OUTER_BOUND ( 'NONE', #64, .T. ) ;
#35 = CIRCLE ( 'NONE', #8, 12.50000000000000000 ) ;
#36 = CARTESIAN_POINT ( 'NONE',  ( 0.0000000000000000000, 0.0000000000000000000, 2.000000000000000000 ) ) ;
#37 = CARTESIAN_POINT ( 'NONE',  ( 0.0000000000000000000, 0.0000000000000000000, 2.000000000000000000 ) ) ;
#38 = CIRCLE ( 'NONE', #71, 12.50000000000000000 ) ;
#39 = PRODUCT_DEFINITION ( 'UNKNOWN', '', #133, #10 ) ;
#40 = CARTESIAN_POINT ( 'NONE',  ( -12.50000000000000000, 0.0000000000000000000, 2.000000000000000000 ) ) ;
#41 = VERTEX_POINT ( 'NONE', #94 ) ;
#42 = DIRECTION ( 'NONE',  ( 0.0000000000000000000, 0.0000000000000000000, 1.000000000000000000 ) ) ;
#43 = CALENDAR_DATE ( 2017, 10, 4 ) ;
#44 = DIRECTION ( 'NONE',  ( 0.0000000000000000000, 0.0000000000000000000, 1.000000000000000000 ) ) ;
#45 = ORIENTED_EDGE ( 'NONE', *, *, #103, .F. ) ;
#46 = CLOSED_SHELL ( 'NONE', ( #131, #61, #72, #23 ) ) ;
#47 = UNCERTAINTY_MEASURE_WITH_UNIT (LENGTH_MEASURE( 1.000000000000000100E-005 ), #175, 'distance_accuracy_value', 'NONE');
#48 = AXIS2_PLACEMENT_3D ( 'NONE', #36, #42, #164 ) ;
#49 = APPROVAL ( #97, 'UNSPECIFIED' ) ;
#50 = ORIENTED_EDGE ( 'NONE', *, *, #122, .F. ) ;
#51 = DIRECTION ( 'NONE',  ( 1.000000000000000000, 0.0000000000000000000, -0.0000000000000000000 ) ) ;
#52 = ORIENTED_EDGE ( 'NONE', *, *, #122, .T. ) ;
#53 = CARTESIAN_POINT ( 'NONE',  ( 12.50000000000000000, 1.530808498934191500E-015, 0.0000000000000000000 ) ) ;
#54 = VERTEX_POINT ( 'NONE', #81 ) ;
#55 = ORIENTED_EDGE ( 'NONE', *, *, #99, .T. ) ;
#56 = APPROVAL ( #73, 'UNSPECIFIED' ) ;
#57 = APPLICATION_PROTOCOL_DEFINITION ( 'international standard', 'config_control_design', 1994, #70 ) ;
#58 = AXIS2_PLACEMENT_3D ( 'NONE', #68, #44, #51 ) ;
#59 = VERTEX_POINT ( 'NONE', #24 ) ;
#60 = CARTESIAN_POINT ( 'NONE',  ( 0.0000000000000000000, 0.0000000000000000000, 2.000000000000000000 ) ) ;
#61 = ADVANCED_FACE ( 'NONE', ( #34 ), #11, .T. ) ;
#62 = CC_DESIGN_APPROVAL ( #4, ( #39 ) ) ;
#63 = EDGE_LOOP ( 'NONE', ( #50, #85, #78, #150 ) ) ;
#64 = EDGE_LOOP ( 'NONE', ( #115, #84, #55, #69 ) ) ;
#65 = DIRECTION ( 'NONE',  ( 0.0000000000000000000, 0.0000000000000000000, 1.000000000000000000 ) ) ;
#66 = APPROVAL_PERSON_ORGANIZATION ( #172, #4, #104 ) ;
#67 = CC_DESIGN_PERSON_AND_ORGANIZATION_ASSIGNMENT ( #139, #3, ( #39 ) ) ;
#68 = CARTESIAN_POINT ( 'NONE',  ( 0.0000000000000000000, 0.0000000000000000000, 2.000000000000000000 ) ) ;
#69 = ORIENTED_EDGE ( 'NONE', *, *, #163, .T. ) ;
#70 = APPLICATION_CONTEXT ( 'configuration controlled 3d designs of mechanical parts and assemblies' ) ;
#71 = AXIS2_PLACEMENT_3D ( 'NONE', #60, #79, #110 ) ;
#72 = ADVANCED_FACE ( 'NONE', ( #18 ), #14, .T. ) ;
#73 = APPROVAL_STATUS ( 'not_yet_approved' ) ;
#74 = EDGE_LOOP ( 'NONE', ( #75, #45 ) ) ;
#75 = ORIENTED_EDGE ( 'NONE', *, *, #163, .F. ) ;
#76 = ADVANCED_BREP_SHAPE_REPRESENTATION ( 'Web Model 32951_45640', ( #88, #25 ), #20 ) ;
#77 = CARTESIAN_POINT ( 'NONE',  ( 0.0000000000000000000, 0.0000000000000000000, 0.0000000000000000000 ) ) ;
#78 = ORIENTED_EDGE ( 'NONE', *, *, #103, .T. ) ;
#79 = DIRECTION ( 'NONE',  ( 0.0000000000000000000, 0.0000000000000000000, 1.000000000000000000 ) ) ;
#80 = PRODUCT ( 'Web Model 32951_45640', 'Web Model 32951_45640', '', ( #155 ) ) ;
#81 = CARTESIAN_POINT ( 'NONE',  ( -12.50000000000000000, 0.0000000000000000000, 2.000000000000000000 ) ) ;
#82 = VECTOR ( 'NONE', #130, 1000.000000000000000 ) ;
#83 = SECURITY_CLASSIFICATION ( '', '', #87 ) ;
#84 = ORIENTED_EDGE ( 'NONE', *, *, #2, .F. ) ;
#85 = ORIENTED_EDGE ( 'NONE', *, *, #136, .T. ) ;
#86 = VERTEX_POINT ( 'NONE', #53 ) ;
#87 = SECURITY_CLASSIFICATION_LEVEL ( 'unclassified' ) ;
#88 = MANIFOLD_SOLID_BREP ( 'Extrude1', #46 ) ;
#89 = PERSON_AND_ORGANIZATION ( #161, #102 ) ;
#90 = CARTESIAN_POINT ( 'NONE',  ( 0.0000000000000000000, 0.0000000000000000000, 0.0000000000000000000 ) ) ;
#91 = DIRECTION ( 'NONE',  ( 0.0000000000000000000, 0.0000000000000000000, 1.000000000000000000 ) ) ;
#92 = CARTESIAN_POINT ( 'NONE',  ( 12.50000000000000000, 1.530808498934191500E-015, 2.000000000000000000 ) ) ;
#93 = PERSON_AND_ORGANIZATION_ROLE ( 'creator' ) ;
#94 = CARTESIAN_POINT ( 'NONE',  ( 12.50000000000000000, 1.530808498934191500E-015, 2.000000000000000000 ) ) ;
#95 = DIRECTION ( 'NONE',  ( -0.0000000000000000000, -0.0000000000000000000, -1.000000000000000000 ) ) ;
#96 = DIRECTION ( 'NONE',  ( -0.0000000000000000000, -0.0000000000000000000, -1.000000000000000000 ) ) ;
#97 = APPROVAL_STATUS ( 'not_yet_approved' ) ;
#98 = ORIENTED_EDGE ( 'NONE', *, *, #2, .T. ) ;
#99 = EDGE_CURVE ( 'NONE', #54, #59, #31, .T. ) ;
#100 = APPROVAL_ROLE ( '' ) ;
#101 = CC_DESIGN_APPROVAL ( #49, ( #83 ) ) ;
#102 = ORGANIZATION ( 'UNSPECIFIED', 'UNSPECIFIED', '' ) ;
#103 = EDGE_CURVE ( 'NONE', #86, #59, #113, .T. ) ;
#104 = APPROVAL_ROLE ( '' ) ;
#105 = PERSON_AND_ORGANIZATION ( #161, #102 ) ;
#106 = LOCAL_TIME ( 12, 26, 49.00000000000000000, #132 ) ;
#107 = AXIS2_PLACEMENT_3D ( 'NONE', #114, #120, #159 ) ;
#108 = CALENDAR_DATE ( 2017, 10, 4 ) ;
#109 = CC_DESIGN_APPROVAL ( #56, ( #133 ) ) ;
#110 = DIRECTION ( 'NONE',  ( 1.000000000000000000, 0.0000000000000000000, 0.0000000000000000000 ) ) ;
#111 = DATE_TIME_ROLE ( 'classification_date' ) ;
#112 = FACE_OUTER_BOUND ( 'NONE', #74, .T. ) ;
#113 = CIRCLE ( 'NONE', #107, 12.50000000000000000 ) ;
#114 = CARTESIAN_POINT ( 'NONE',  ( 0.0000000000000000000, 0.0000000000000000000, 0.0000000000000000000 ) ) ;
#115 = ORIENTED_EDGE ( 'NONE', *, *, #136, .F. ) ;
#116 = DIRECTION ( 'NONE',  ( 1.000000000000000000, 0.0000000000000000000, 0.0000000000000000000 ) ) ;
#117 = VECTOR ( 'NONE', #95, 1000.000000000000000 ) ;
#118 = APPROVAL_DATE_TIME ( #142, #4 ) ;
#119 = CC_DESIGN_PERSON_AND_ORGANIZATION_ASSIGNMENT ( #147, #32, ( #83 ) ) ;
#120 = DIRECTION ( 'NONE',  ( 0.0000000000000000000, 0.0000000000000000000, 1.000000000000000000 ) ) ;
#121 = COORDINATED_UNIVERSAL_TIME_OFFSET ( 5, 0, .BEHIND. ) ;
#122 = EDGE_CURVE ( 'NONE', #41, #54, #7, .T. ) ;
#123 = COORDINATED_UNIVERSAL_TIME_OFFSET ( 5, 0, .BEHIND. ) ;
#124 = LOCAL_TIME ( 12, 26, 49.00000000000000000, #174 ) ;
#125 = CC_DESIGN_SECURITY_CLASSIFICATION ( #83, ( #133 ) ) ;
#126 = CC_DESIGN_PERSON_AND_ORGANIZATION_ASSIGNMENT ( #166, #19, ( #133 ) ) ;
#127 = LOCAL_TIME ( 12, 26, 49.00000000000000000, #152 ) ;
#128 = PRODUCT_DEFINITION_SHAPE ( 'NONE', 'NONE',  #39 ) ;
#129 = DIRECTION ( 'NONE',  ( 1.000000000000000000, 0.0000000000000000000, 0.0000000000000000000 ) ) ;
#130 = DIRECTION ( 'NONE',  ( -0.0000000000000000000, -0.0000000000000000000, -1.000000000000000000 ) ) ;
#131 = ADVANCED_FACE ( 'NONE', ( #22 ), #26, .T. ) ;
#132 = COORDINATED_UNIVERSAL_TIME_OFFSET ( 5, 0, .BEHIND. ) ;
#133 = PRODUCT_DEFINITION_FORMATION_WITH_SPECIFIED_SOURCE ( 'ANY', '', #80, .NOT_KNOWN. ) ;
#134 = DATE_AND_TIME ( #153, #140 ) ;
#135 = APPROVAL_DATE_TIME ( #29, #49 ) ;
#136 = EDGE_CURVE ( 'NONE', #41, #86, #12, .T. ) ;
#137 = APPLICATION_CONTEXT ( 'configuration controlled 3d designs of mechanical parts and assemblies' ) ;
#138 = DATE_AND_TIME ( #6, #9 ) ;
#139 = PERSON_AND_ORGANIZATION ( #161, #102 ) ;
#140 = LOCAL_TIME ( 12, 26, 49.00000000000000000, #121 ) ;
#141 = CC_DESIGN_DATE_AND_TIME_ASSIGNMENT ( #138, #111, ( #83 ) ) ;
#142 = DATE_AND_TIME ( #108, #106 ) ;
#143 = APPROVAL_PERSON_ORGANIZATION ( #89, #49, #100 ) ;
#144 = AXIS2_PLACEMENT_3D ( 'NONE', #77, #169, #173 ) ;
#145 = CARTESIAN_POINT ( 'NONE',  ( 0.0000000000000000000, 0.0000000000000000000, 2.000000000000000000 ) ) ;
#146 = APPROVAL_PERSON_ORGANIZATION ( #160, #56, #171 ) ;
#147 = PERSON_AND_ORGANIZATION ( #161, #102 ) ;
#148 = CALENDAR_DATE ( 2017, 10, 4 ) ;
#149 = APPROVAL_DATE_TIME ( #134, #56 ) ;
#150 = ORIENTED_EDGE ( 'NONE', *, *, #99, .F. ) ;
#151 = APPROVAL_STATUS ( 'not_yet_approved' ) ;
#152 = COORDINATED_UNIVERSAL_TIME_OFFSET ( 5, 0, .BEHIND. ) ;
#153 = CALENDAR_DATE ( 2017, 10, 4 ) ;
#154 = CC_DESIGN_PERSON_AND_ORGANIZATION_ASSIGNMENT ( #162, #93, ( #133 ) ) ;
#155 = MECHANICAL_CONTEXT ( 'NONE', #137, 'mechanical' ) ;
#156 = EDGE_LOOP ( 'NONE', ( #98, #52 ) ) ;
#157 = DATE_AND_TIME ( #148, #127 ) ;
#158 = APPLICATION_PROTOCOL_DEFINITION ( 'international standard', 'config_control_design', 1994, #137 ) ;
#159 = DIRECTION ( 'NONE',  ( 1.000000000000000000, 0.0000000000000000000, 0.0000000000000000000 ) ) ;
#160 = PERSON_AND_ORGANIZATION ( #161, #102 ) ;
#161 = PERSON ( 'UNSPECIFIED', 'UNSPECIFIED', 'UNSPECIFIED', ('UNSPECIFIED'), ('UNSPECIFIED'), ('UNSPECIFIED') ) ;
#162 = PERSON_AND_ORGANIZATION ( #161, #102 ) ;
#163 = EDGE_CURVE ( 'NONE', #59, #86, #35, .T. ) ;
#164 = DIRECTION ( 'NONE',  ( 1.000000000000000000, 0.0000000000000000000, 0.0000000000000000000 ) ) ;
#165 = DATE_TIME_ROLE ( 'creation_date' ) ;
#166 = PERSON_AND_ORGANIZATION ( #161, #102 ) ;
#167 = PRODUCT_RELATED_PRODUCT_CATEGORY ( 'detail', '', ( #80 ) ) ;
#168 = AXIS2_PLACEMENT_3D ( 'NONE', #145, #27, #33 ) ;
#169 = DIRECTION ( 'NONE',  ( 0.0000000000000000000, 0.0000000000000000000, 1.000000000000000000 ) ) ;
#170 = CC_DESIGN_DATE_AND_TIME_ASSIGNMENT ( #157, #165, ( #39 ) ) ;
#171 = APPROVAL_ROLE ( '' ) ;
#172 = PERSON_AND_ORGANIZATION ( #161, #102 ) ;
#173 = DIRECTION ( 'NONE',  ( 1.000000000000000000, 0.0000000000000000000, -0.0000000000000000000 ) ) ;
#174 = COORDINATED_UNIVERSAL_TIME_OFFSET ( 5, 0, .BEHIND. ) ;
#175 =( LENGTH_UNIT ( ) NAMED_UNIT ( * ) SI_UNIT ( .MILLI., .METRE. ) );
ENDSEC;
END-ISO-10303-21;
