ISO-10303-21;
HEADER;
FILE_DESCRIPTION (( 'STEP AP203' ),
    '1' );
FILE_NAME ('Web Model 19307_19309.step',
    '2021-08-23T19:36:12',
    ( '' ),
    ( '' ),
    'SwSTEP 2.0',
    'SolidWorks 2018',
    '' );
FILE_SCHEMA (( 'CONFIG_CONTROL_DESIGN' ));
ENDSEC;

DATA;
#1 = VECTOR ( 'NONE', #11, 1000.000000000000000 ) ;
#2 = CC_DESIGN_APPROVAL ( #27, ( #393 ) ) ;
#3 = EDGE_LOOP ( 'NONE', ( #362, #378 ) ) ;
#4 = VERTEX_POINT ( 'NONE', #167 ) ;
#5 = CC_DESIGN_APPROVAL ( #255, ( #133 ) ) ;
#6 = CIRCLE ( 'NONE', #80, 9.524999999999998579 ) ;
#7 = CARTESIAN_POINT ( 'NONE',  ( 0.000000000000000000, 0.000000000000000000, 0.000000000000000000 ) ) ;
#8 = DIRECTION ( 'NONE',  ( 0.000000000000000000, 0.000000000000000000, 1.000000000000000000 ) ) ;
#9 = DIRECTION ( 'NONE',  ( 1.000000000000000000, 0.000000000000000000, 0.000000000000000000 ) ) ;
#10 = CYLINDRICAL_SURFACE ( 'NONE', #381, 0.5461000000000006960 ) ;
#11 = DIRECTION ( 'NONE',  ( -0.000000000000000000, -0.000000000000000000, -1.000000000000000000 ) ) ;
#12 = AXIS2_PLACEMENT_3D ( 'NONE', #181, #356, #390 ) ;
#13 = EDGE_LOOP ( 'NONE', ( #265, #55 ) ) ;
#14 = AXIS2_PLACEMENT_3D ( 'NONE', #213, #183, #117 ) ;
#15 = ORIENTED_EDGE ( 'NONE', *, *, #275, .T. ) ;
#16 = CARTESIAN_POINT ( 'NONE',  ( 6.349999999999999645, 7.776507174585690191E-16, 3.180000000000000160 ) ) ;
#17 = DATE_AND_TIME ( #107, #123 ) ;
#18 =( NAMED_UNIT ( * ) PLANE_ANGLE_UNIT ( ) SI_UNIT ( $, .RADIAN. ) );
#19 = CARTESIAN_POINT ( 'NONE',  ( -8.486100000000002197, 0.000000000000000000, 3.180000000000000160 ) ) ;
#20 = APPLICATION_PROTOCOL_DEFINITION ( 'international standard', 'config_control_design', 1994, #400 ) ;
#21 = DIRECTION ( 'NONE',  ( -0.000000000000000000, -0.000000000000000000, -1.000000000000000000 ) ) ;
#22 = AXIS2_PLACEMENT_3D ( 'NONE', #195, #21, #57 ) ;
#23 = PERSON ( 'UNSPECIFIED', 'UNSPECIFIED', 'UNSPECIFIED', ('UNSPECIFIED'), ('UNSPECIFIED'), ('UNSPECIFIED') ) ;
#24 = CIRCLE ( 'NONE', #202, 6.349999999999999645 ) ;
#25 = DIRECTION ( 'NONE',  ( 0.000000000000000000, 0.000000000000000000, 1.000000000000000000 ) ) ;
#26 = VERTEX_POINT ( 'NONE', #58 ) ;
#27 = APPROVAL ( #244, 'UNSPECIFIED' ) ;
#28 = ORIENTED_EDGE ( 'NONE', *, *, #159, .T. ) ;
#29 = ORIENTED_EDGE ( 'NONE', *, *, #112, .F. ) ;
#30 = COORDINATED_UNIVERSAL_TIME_OFFSET ( 5, 0, .BEHIND. ) ;
#31 = CC_DESIGN_DATE_AND_TIME_ASSIGNMENT ( #316, #128, ( #360 ) ) ;
#32 = DIRECTION ( 'NONE',  ( 0.000000000000000000, 0.000000000000000000, 1.000000000000000000 ) ) ;
#33 = CARTESIAN_POINT ( 'NONE',  ( 0.000000000000000000, 0.000000000000000000, -0.002000000000000000042 ) ) ;
#34 = DIRECTION ( 'NONE',  ( 1.000000000000000000, 0.000000000000000000, -0.000000000000000000 ) ) ;
#35 = LINE ( 'NONE', #109, #311 ) ;
#36 = CARTESIAN_POINT ( 'NONE',  ( 6.349999999999999645, 7.776507174585690191E-16, 0.000000000000000000 ) ) ;
#37 = VERTEX_POINT ( 'NONE', #368 ) ;
#38 = AXIS2_PLACEMENT_3D ( 'NONE', #209, #235, #76 ) ;
#39 = AXIS2_PLACEMENT_3D ( 'NONE', #380, #32, #138 ) ;
#40 = ORIENTED_EDGE ( 'NONE', *, *, #42, .T. ) ;
#41 = CARTESIAN_POINT ( 'NONE',  ( 9.525000000000000355, 1.166476076187853627E-15, 3.180000000000000160 ) ) ;
#42 = EDGE_CURVE ( 'NONE', #242, #137, #301, .T. ) ;
#43 = PERSON_AND_ORGANIZATION ( #23, #194 ) ;
#44 = CARTESIAN_POINT ( 'NONE',  ( 7.393900000000000361, 0.000000000000000000, 0.000000000000000000 ) ) ;
#45 = PLANE ( 'NONE',  #14 ) ;
#46 = CARTESIAN_POINT ( 'NONE',  ( 0.000000000000000000, 0.000000000000000000, 3.180000000000000160 ) ) ;
#47 = ORIENTED_EDGE ( 'NONE', *, *, #119, .F. ) ;
#48 = ADVANCED_FACE ( 'NONE', ( #350 ), #116, .T. ) ;
#49 = APPROVAL_ROLE ( '' ) ;
#50 = CARTESIAN_POINT ( 'NONE',  ( 0.000000000000000000, 0.000000000000000000, 3.180000000000000160 ) ) ;
#51 =( GEOMETRIC_REPRESENTATION_CONTEXT ( 3 ) GLOBAL_UNCERTAINTY_ASSIGNED_CONTEXT ( ( #65 ) ) GLOBAL_UNIT_ASSIGNED_CONTEXT ( ( #365, #18, #307 ) ) REPRESENTATION_CONTEXT ( 'NONE', 'WORKASPACE' ) );
#52 = CARTESIAN_POINT ( 'NONE',  ( 0.000000000000000000, 0.000000000000000000, 0.000000000000000000 ) ) ;
#53 = DIRECTION ( 'NONE',  ( -0.000000000000000000, -0.000000000000000000, -1.000000000000000000 ) ) ;
#54 = CARTESIAN_POINT ( 'NONE',  ( 7.940000000000001279, 0.000000000000000000, 0.000000000000000000 ) ) ;
#55 = ORIENTED_EDGE ( 'NONE', *, *, #42, .F. ) ;
#56 = APPLICATION_PROTOCOL_DEFINITION ( 'international standard', 'config_control_design', 1994, #110 ) ;
#57 = DIRECTION ( 'NONE',  ( -1.000000000000000000, 0.000000000000000000, 0.000000000000000000 ) ) ;
#58 = CARTESIAN_POINT ( 'NONE',  ( -6.349999999999999645, 0.000000000000000000, 3.180000000000000160 ) ) ;
#59 = DIRECTION ( 'NONE',  ( 1.000000000000000000, 0.000000000000000000, 0.000000000000000000 ) ) ;
#60 = EDGE_CURVE ( 'NONE', #200, #37, #283, .T. ) ;
#61 = CIRCLE ( 'NONE', #72, 0.5460999999999999188 ) ;
#62 = AXIS2_PLACEMENT_3D ( 'NONE', #290, #257, #34 ) ;
#63 = ORIENTED_EDGE ( 'NONE', *, *, #275, .F. ) ;
#64 = CYLINDRICAL_SURFACE ( 'NONE', #352, 0.5461000000000006960 ) ;
#65 = UNCERTAINTY_MEASURE_WITH_UNIT (LENGTH_MEASURE( 1.000000000000000082E-05 ), #365, 'distance_accuracy_value', 'NONE');
#66 = EDGE_LOOP ( 'NONE', ( #180, #345, #47, #63 ) ) ;
#67 = CARTESIAN_POINT ( 'NONE',  ( 8.486100000000002197, 6.687796170143707803E-17, 3.180000000000000160 ) ) ;
#68 = CALENDAR_DATE ( 2021, 23, 8 ) ;
#69 = AXIS2_PLACEMENT_3D ( 'NONE', #216, #189, #81 ) ;
#70 = FACE_OUTER_BOUND ( 'NONE', #3, .T. ) ;
#71 = ORIENTED_EDGE ( 'NONE', *, *, #358, .T. ) ;
#72 = AXIS2_PLACEMENT_3D ( 'NONE', #289, #379, #226 ) ;
#73 = ORIENTED_EDGE ( 'NONE', *, *, #171, .T. ) ;
#74 = LOCAL_TIME ( 15, 36, 12.00000000000000000, #102 ) ;
#75 = CARTESIAN_POINT ( 'NONE',  ( -9.525000000000000355, 0.000000000000000000, 3.180000000000000160 ) ) ;
#76 = DIRECTION ( 'NONE',  ( 1.000000000000000000, 0.000000000000000000, -0.000000000000000000 ) ) ;
#77 = AXIS2_PLACEMENT_3D ( 'NONE', #86, #129, #280 ) ;
#78 = CIRCLE ( 'NONE', #261, 0.5460999999999999188 ) ;
#79 = ORIENTED_EDGE ( 'NONE', *, *, #318, .T. ) ;
#80 = AXIS2_PLACEMENT_3D ( 'NONE', #33, #315, #377 ) ;
#81 = DIRECTION ( 'NONE',  ( -1.000000000000000000, 0.000000000000000000, 0.000000000000000000 ) ) ;
#82 = EDGE_CURVE ( 'NONE', #106, #340, #271, .T. ) ;
#83 = DIRECTION ( 'NONE',  ( 1.000000000000000000, 0.000000000000000000, 0.000000000000000000 ) ) ;
#84 = ORIENTED_EDGE ( 'NONE', *, *, #239, .T. ) ;
#85 = DIRECTION ( 'NONE',  ( -1.000000000000000000, 0.000000000000000000, 0.000000000000000000 ) ) ;
#86 = CARTESIAN_POINT ( 'NONE',  ( 0.000000000000000000, 0.000000000000000000, 3.180000000000000160 ) ) ;
#87 = DIRECTION ( 'NONE',  ( 1.000000000000000000, 0.000000000000000000, 0.000000000000000000 ) ) ;
#88 = PERSON_AND_ORGANIZATION_ROLE ( 'creator' ) ;
#89 = CARTESIAN_POINT ( 'NONE',  ( 0.000000000000000000, 0.000000000000000000, -0.002000000000000000042 ) ) ;
#90 = ADVANCED_FACE ( 'NONE', ( #222 ), #10, .F. ) ;
#91 = AXIS2_PLACEMENT_3D ( 'NONE', #46, #302, #305 ) ;
#92 = CIRCLE ( 'NONE', #412, 0.5461000000000006960 ) ;
#93 = FACE_BOUND ( 'NONE', #359, .T. ) ;
#94 = EDGE_LOOP ( 'NONE', ( #84, #240, #382, #273 ) ) ;
#95 = DATE_AND_TIME ( #68, #74 ) ;
#96 = DIRECTION ( 'NONE',  ( -0.000000000000000000, -0.000000000000000000, -1.000000000000000000 ) ) ;
#97 = PRODUCT ( 'Web Model 19307_19309', 'Web Model 19307_19309', '', ( #243 ) ) ;
#98 = PERSON_AND_ORGANIZATION ( #23, #194 ) ;
#99 = PLANE ( 'NONE',  #62 ) ;
#100 = CARTESIAN_POINT ( 'NONE',  ( -7.393900000000001249, 6.687796170143697942E-17, 0.000000000000000000 ) ) ;
#101 = LINE ( 'NONE', #154, #262 ) ;
#102 = COORDINATED_UNIVERSAL_TIME_OFFSET ( 5, 0, .BEHIND. ) ;
#103 = AXIS2_PLACEMENT_3D ( 'NONE', #279, #339, #164 ) ;
#104 = ORIENTED_EDGE ( 'NONE', *, *, #188, .F. ) ;
#105 = CC_DESIGN_PERSON_AND_ORGANIZATION_ASSIGNMENT ( #98, #247, ( #97 ) ) ;
#106 = VERTEX_POINT ( 'NONE', #373 ) ;
#107 = CALENDAR_DATE ( 2021, 23, 8 ) ;
#108 = ADVANCED_BREP_SHAPE_REPRESENTATION ( 'Web Model 19307_19309', ( #146, #344 ), #51 ) ;
#109 = CARTESIAN_POINT ( 'NONE',  ( -6.349999999999999645, 0.000000000000000000, 3.180000000000000160 ) ) ;
#110 = APPLICATION_CONTEXT ( 'configuration controlled 3d designs of mechanical parts and assemblies' ) ;
#111 = DIRECTION ( 'NONE',  ( 1.000000000000000000, 0.000000000000000000, 0.000000000000000000 ) ) ;
#112 = EDGE_CURVE ( 'NONE', #26, #147, #24, .T. ) ;
#113 = VECTOR ( 'NONE', #337, 1000.000000000000000 ) ;
#114 = PERSON_AND_ORGANIZATION ( #23, #194 ) ;
#115 = CARTESIAN_POINT ( 'NONE',  ( 9.524999999999998579, 1.166476076187853627E-15, -0.002000000000000000042 ) ) ;
#116 = CYLINDRICAL_SURFACE ( 'NONE', #103, 9.525000000000000355 ) ;
#117 = DIRECTION ( 'NONE',  ( 1.000000000000000000, 0.000000000000000000, -0.000000000000000000 ) ) ;
#118 = ADVANCED_FACE ( 'NONE', ( #268 ), #342, .F. ) ;
#119 = EDGE_CURVE ( 'NONE', #232, #323, #203, .T. ) ;
#120 = ORIENTED_EDGE ( 'NONE', *, *, #389, .T. ) ;
#121 = DIRECTION ( 'NONE',  ( -0.000000000000000000, -0.000000000000000000, -1.000000000000000000 ) ) ;
#122 = EDGE_LOOP ( 'NONE', ( #395, #28 ) ) ;
#123 = LOCAL_TIME ( 15, 36, 12.00000000000000000, #353 ) ;
#124 = DIRECTION ( 'NONE',  ( -0.000000000000000000, -0.000000000000000000, -1.000000000000000000 ) ) ;
#125 = FACE_OUTER_BOUND ( 'NONE', #162, .T. ) ;
#126 = DIRECTION ( 'NONE',  ( 1.000000000000000000, 0.000000000000000000, 0.000000000000000000 ) ) ;
#127 = CARTESIAN_POINT ( 'NONE',  ( 7.940000000000001279, 0.000000000000000000, 3.180000000000000160 ) ) ;
#128 = DATE_TIME_ROLE ( 'creation_date' ) ;
#129 = DIRECTION ( 'NONE',  ( 0.000000000000000000, 0.000000000000000000, 1.000000000000000000 ) ) ;
#130 = CIRCLE ( 'NONE', #294, 0.5461000000000006960 ) ;
#131 = DIRECTION ( 'NONE',  ( 1.000000000000000000, 0.000000000000000000, 0.000000000000000000 ) ) ;
#132 = EDGE_CURVE ( 'NONE', #147, #323, #101, .T. ) ;
#133 = PRODUCT_DEFINITION_FORMATION_WITH_SPECIFIED_SOURCE ( 'ANY', '', #97, .NOT_KNOWN. ) ;
#134 = ORIENTED_EDGE ( 'NONE', *, *, #119, .T. ) ;
#135 = CALENDAR_DATE ( 2021, 23, 8 ) ;
#136 = EDGE_CURVE ( 'NONE', #405, #387, #92, .T. ) ;
#137 = VERTEX_POINT ( 'NONE', #158 ) ;
#138 = DIRECTION ( 'NONE',  ( 1.000000000000000000, 0.000000000000000000, -0.000000000000000000 ) ) ;
#139 = PLANE ( 'NONE',  #39 ) ;
#140 = CALENDAR_DATE ( 2021, 23, 8 ) ;
#141 = EDGE_CURVE ( 'NONE', #37, #200, #281, .T. ) ;
#142 = CARTESIAN_POINT ( 'NONE',  ( 0.000000000000000000, 0.000000000000000000, -0.002000000000000000042 ) ) ;
#143 = APPROVAL_DATE_TIME ( #295, #321 ) ;
#144 = EDGE_LOOP ( 'NONE', ( #415, #79, #293, #172 ) ) ;
#145 = FACE_OUTER_BOUND ( 'NONE', #13, .T. ) ;
#146 = MANIFOLD_SOLID_BREP ( 'Boss-Extrude2', #206 ) ;
#147 = VERTEX_POINT ( 'NONE', #16 ) ;
#148 = CARTESIAN_POINT ( 'NONE',  ( -9.525000000000000355, 0.000000000000000000, 3.180000000000000160 ) ) ;
#149 = DIRECTION ( 'NONE',  ( 0.000000000000000000, 0.000000000000000000, 1.000000000000000000 ) ) ;
#150 = DIRECTION ( 'NONE',  ( -0.000000000000000000, -0.000000000000000000, -1.000000000000000000 ) ) ;
#151 = ADVANCED_FACE ( 'NONE', ( #320 ), #329, .F. ) ;
#152 = AXIS2_PLACEMENT_3D ( 'NONE', #7, #215, #9 ) ;
#153 = CIRCLE ( 'NONE', #152, 6.349999999999999645 ) ;
#154 = CARTESIAN_POINT ( 'NONE',  ( 6.349999999999999645, 7.776507174585690191E-16, 3.180000000000000160 ) ) ;
#155 = CC_DESIGN_PERSON_AND_ORGANIZATION_ASSIGNMENT ( #246, #234, ( #133 ) ) ;
#156 = VERTEX_POINT ( 'NONE', #218 ) ;
#157 = FACE_OUTER_BOUND ( 'NONE', #207, .T. ) ;
#158 = CARTESIAN_POINT ( 'NONE',  ( -9.524999999999998579, 0.000000000000000000, -0.002000000000000000042 ) ) ;
#159 = EDGE_CURVE ( 'NONE', #387, #405, #177, .T. ) ;
#160 = ADVANCED_FACE ( 'NONE', ( #170 ), #404, .F. ) ;
#161 = CARTESIAN_POINT ( 'NONE',  ( 0.000000000000000000, 0.000000000000000000, 0.000000000000000000 ) ) ;
#162 = EDGE_LOOP ( 'NONE', ( #343, #399, #71, #256 ) ) ;
#163 = CARTESIAN_POINT ( 'NONE',  ( 7.940000000000001279, 0.000000000000000000, 3.180000000000000160 ) ) ;
#164 = DIRECTION ( 'NONE',  ( -1.000000000000000000, 0.000000000000000000, 0.000000000000000000 ) ) ;
#165 = DIRECTION ( 'NONE',  ( 0.000000000000000000, 0.000000000000000000, 1.000000000000000000 ) ) ;
#166 = APPROVAL_PERSON_ORGANIZATION ( #43, #255, #212 ) ;
#167 = CARTESIAN_POINT ( 'NONE',  ( -7.393900000000001249, 6.687796170143697942E-17, 3.180000000000000160 ) ) ;
#168 = EDGE_CURVE ( 'NONE', #237, #106, #238, .T. ) ;
#169 = DIRECTION ( 'NONE',  ( 0.000000000000000000, 0.000000000000000000, 1.000000000000000000 ) ) ;
#170 = FACE_OUTER_BOUND ( 'NONE', #66, .T. ) ;
#171 = EDGE_CURVE ( 'NONE', #340, #106, #78, .T. ) ;
#172 = ORIENTED_EDGE ( 'NONE', *, *, #168, .F. ) ;
#173 = EDGE_LOOP ( 'NONE', ( #253, #120, #285, #178 ) ) ;
#174 = DIRECTION ( 'NONE',  ( 0.000000000000000000, 0.000000000000000000, 1.000000000000000000 ) ) ;
#175 = CARTESIAN_POINT ( 'NONE',  ( 7.393900000000000361, 0.000000000000000000, 3.180000000000000160 ) ) ;
#176 = COORDINATED_UNIVERSAL_TIME_OFFSET ( 5, 0, .BEHIND. ) ;
#177 = CIRCLE ( 'NONE', #236, 0.5461000000000006960 ) ;
#178 = ORIENTED_EDGE ( 'NONE', *, *, #171, .F. ) ;
#179 = AXIS2_PLACEMENT_3D ( 'NONE', #191, #267, #398 ) ;
#180 = ORIENTED_EDGE ( 'NONE', *, *, #112, .T. ) ;
#181 = CARTESIAN_POINT ( 'NONE',  ( 7.940000000000001279, 0.000000000000000000, 3.180000000000000160 ) ) ;
#182 = DIRECTION ( 'NONE',  ( -1.000000000000000000, 0.000000000000000000, 0.000000000000000000 ) ) ;
#183 = DIRECTION ( 'NONE',  ( 0.000000000000000000, 0.000000000000000000, 1.000000000000000000 ) ) ;
#184 = EDGE_CURVE ( 'NONE', #37, #242, #229, .T. ) ;
#185 = FACE_OUTER_BOUND ( 'NONE', #230, .T. ) ;
#186 = APPROVAL_DATE_TIME ( #334, #27 ) ;
#187 = ORIENTED_EDGE ( 'NONE', *, *, #296, .F. ) ;
#188 = EDGE_CURVE ( 'NONE', #323, #232, #153, .T. ) ;
#189 = DIRECTION ( 'NONE',  ( -0.000000000000000000, -0.000000000000000000, -1.000000000000000000 ) ) ;
#190 = ORIENTED_EDGE ( 'NONE', *, *, #341, .T. ) ;
#191 = CARTESIAN_POINT ( 'NONE',  ( 0.000000000000000000, 0.000000000000000000, 3.180000000000000160 ) ) ;
#192 = PERSON_AND_ORGANIZATION ( #23, #194 ) ;
#193 = CARTESIAN_POINT ( 'NONE',  ( 7.940000000000001279, 0.000000000000000000, 3.180000000000000160 ) ) ;
#194 = ORGANIZATION ( 'UNSPECIFIED', 'UNSPECIFIED', '' ) ;
#195 = CARTESIAN_POINT ( 'NONE',  ( -7.940000000000001279, 0.000000000000000000, 3.180000000000000160 ) ) ;
#196 = CARTESIAN_POINT ( 'NONE',  ( 0.000000000000000000, 0.000000000000000000, 3.180000000000000160 ) ) ;
#197 = FACE_OUTER_BOUND ( 'NONE', #122, .T. ) ;
#198 = ORIENTED_EDGE ( 'NONE', *, *, #347, .T. ) ;
#199 = AXIS2_PLACEMENT_3D ( 'NONE', #348, #224, #414 ) ;
#200 = VERTEX_POINT ( 'NONE', #148 ) ;
#201 = LOCAL_TIME ( 15, 36, 12.00000000000000000, #30 ) ;
#202 = AXIS2_PLACEMENT_3D ( 'NONE', #196, #169, #254 ) ;
#203 = CIRCLE ( 'NONE', #369, 6.349999999999999645 ) ;
#204 = FACE_BOUND ( 'NONE', #287, .T. ) ;
#205 = SECURITY_CLASSIFICATION_LEVEL ( 'unclassified' ) ;
#206 = CLOSED_SHELL ( 'NONE', ( #392, #118, #160, #397, #338, #48, #151, #90, #402, #272, #214, #363, #370 ) ) ;
#207 = EDGE_LOOP ( 'NONE', ( #251, #225, #40, #309 ) ) ;
#208 = LINE ( 'NONE', #175, #288 ) ;
#209 = CARTESIAN_POINT ( 'NONE',  ( 0.000000000000000000, 0.000000000000000000, 0.000000000000000000 ) ) ;
#210 = VECTOR ( 'NONE', #260, 1000.000000000000000 ) ;
#211 = LOCAL_TIME ( 15, 36, 12.00000000000000000, #292 ) ;
#212 = APPROVAL_ROLE ( '' ) ;
#213 = CARTESIAN_POINT ( 'NONE',  ( 0.000000000000000000, 0.000000000000000000, 0.000000000000000000 ) ) ;
#214 = ADVANCED_FACE ( 'NONE', ( #185 ), #233, .T. ) ;
#215 = DIRECTION ( 'NONE',  ( 0.000000000000000000, 0.000000000000000000, 1.000000000000000000 ) ) ;
#216 = CARTESIAN_POINT ( 'NONE',  ( 0.000000000000000000, 0.000000000000000000, 3.180000000000000160 ) ) ;
#217 = CIRCLE ( 'NONE', #199, 6.349999999999999645 ) ;
#218 = CARTESIAN_POINT ( 'NONE',  ( 8.486100000000002197, 6.687796170143712733E-17, 3.180000000000000160 ) ) ;
#219 = PERSON_AND_ORGANIZATION ( #23, #194 ) ;
#220 = AXIS2_PLACEMENT_3D ( 'NONE', #89, #25, #131 ) ;
#221 = EDGE_CURVE ( 'NONE', #200, #137, #252, .T. ) ;
#222 = FACE_OUTER_BOUND ( 'NONE', #173, .T. ) ;
#223 = FACE_OUTER_BOUND ( 'NONE', #408, .T. ) ;
#224 = DIRECTION ( 'NONE',  ( 0.000000000000000000, 0.000000000000000000, 1.000000000000000000 ) ) ;
#225 = ORIENTED_EDGE ( 'NONE', *, *, #184, .T. ) ;
#226 = DIRECTION ( 'NONE',  ( 1.000000000000000000, 0.000000000000000000, 0.000000000000000000 ) ) ;
#227 = CARTESIAN_POINT ( 'NONE',  ( 8.486100000000002197, 6.687796170143712733E-17, 0.000000000000000000 ) ) ;
#228 = ORIENTED_EDGE ( 'NONE', *, *, #282, .F. ) ;
#229 = LINE ( 'NONE', #41, #1 ) ;
#230 = EDGE_LOOP ( 'NONE', ( #374, #73 ) ) ;
#231 = CC_DESIGN_PERSON_AND_ORGANIZATION_ASSIGNMENT ( #192, #88, ( #360 ) ) ;
#232 = VERTEX_POINT ( 'NONE', #298 ) ;
#233 = PLANE ( 'NONE',  #38 ) ;
#234 = PERSON_AND_ORGANIZATION_ROLE ( 'creator' ) ;
#235 = DIRECTION ( 'NONE',  ( 0.000000000000000000, 0.000000000000000000, 1.000000000000000000 ) ) ;
#236 = AXIS2_PLACEMENT_3D ( 'NONE', #54, #277, #87 ) ;
#237 = VERTEX_POINT ( 'NONE', #270 ) ;
#238 = LINE ( 'NONE', #19, #113 ) ;
#239 = EDGE_CURVE ( 'NONE', #312, #156, #384, .T. ) ;
#240 = ORIENTED_EDGE ( 'NONE', *, *, #313, .T. ) ;
#241 = DIRECTION ( 'NONE',  ( 0.000000000000000000, 0.000000000000000000, 1.000000000000000000 ) ) ;
#242 = VERTEX_POINT ( 'NONE', #115 ) ;
#243 = MECHANICAL_CONTEXT ( 'NONE', #400, 'mechanical' ) ;
#244 = APPROVAL_STATUS ( 'not_yet_approved' ) ;
#245 = DIRECTION ( 'NONE',  ( 0.000000000000000000, 0.000000000000000000, 1.000000000000000000 ) ) ;
#246 = PERSON_AND_ORGANIZATION ( #23, #194 ) ;
#247 = PERSON_AND_ORGANIZATION_ROLE ( 'design_owner' ) ;
#248 = PERSON_AND_ORGANIZATION ( #23, #194 ) ;
#249 = DIRECTION ( 'NONE',  ( -1.000000000000000000, 0.000000000000000000, 0.000000000000000000 ) ) ;
#250 = DIRECTION ( 'NONE',  ( 0.000000000000000000, 0.000000000000000000, 1.000000000000000000 ) ) ;
#251 = ORIENTED_EDGE ( 'NONE', *, *, #141, .F. ) ;
#252 = LINE ( 'NONE', #75, #349 ) ;
#253 = ORIENTED_EDGE ( 'NONE', *, *, #318, .F. ) ;
#254 = DIRECTION ( 'NONE',  ( 1.000000000000000000, 0.000000000000000000, 0.000000000000000000 ) ) ;
#255 = APPROVAL ( #355, 'UNSPECIFIED' ) ;
#256 = ORIENTED_EDGE ( 'NONE', *, *, #159, .F. ) ;
#257 = DIRECTION ( 'NONE',  ( 0.000000000000000000, 0.000000000000000000, 1.000000000000000000 ) ) ;
#258 = APPROVAL_PERSON_ORGANIZATION ( #114, #27, #49 ) ;
#259 = CARTESIAN_POINT ( 'NONE',  ( 7.393900000000000361, 0.000000000000000000, 3.180000000000000160 ) ) ;
#260 = DIRECTION ( 'NONE',  ( -0.000000000000000000, -0.000000000000000000, -1.000000000000000000 ) ) ;
#261 = AXIS2_PLACEMENT_3D ( 'NONE', #310, #336, #111 ) ;
#262 = VECTOR ( 'NONE', #121, 1000.000000000000000 ) ;
#263 = ORIENTED_EDGE ( 'NONE', *, *, #184, .F. ) ;
#264 = CC_DESIGN_SECURITY_CLASSIFICATION ( #393, ( #133 ) ) ;
#265 = ORIENTED_EDGE ( 'NONE', *, *, #347, .F. ) ;
#266 = FACE_OUTER_BOUND ( 'NONE', #94, .T. ) ;
#267 = DIRECTION ( 'NONE',  ( -0.000000000000000000, -0.000000000000000000, -1.000000000000000000 ) ) ;
#268 = FACE_OUTER_BOUND ( 'NONE', #144, .T. ) ;
#269 = PRODUCT_DEFINITION_SHAPE ( 'NONE', 'NONE',  #360 ) ;
#270 = CARTESIAN_POINT ( 'NONE',  ( -8.486100000000002197, 0.000000000000000000, 3.180000000000000160 ) ) ;
#271 = CIRCLE ( 'NONE', #325, 0.5460999999999999188 ) ;
#272 = ADVANCED_FACE ( 'NONE', ( #197 ), #45, .T. ) ;
#273 = ORIENTED_EDGE ( 'NONE', *, *, #358, .F. ) ;
#274 = DIRECTION ( 'NONE',  ( 1.000000000000000000, 0.000000000000000000, 0.000000000000000000 ) ) ;
#275 = EDGE_CURVE ( 'NONE', #26, #232, #35, .T. ) ;
#276 = DIRECTION ( 'NONE',  ( 1.000000000000000000, 0.000000000000000000, 0.000000000000000000 ) ) ;
#277 = DIRECTION ( 'NONE',  ( 0.000000000000000000, 0.000000000000000000, 1.000000000000000000 ) ) ;
#278 = APPROVAL_STATUS ( 'not_yet_approved' ) ;
#279 = CARTESIAN_POINT ( 'NONE',  ( 0.000000000000000000, 0.000000000000000000, 3.180000000000000160 ) ) ;
#280 = DIRECTION ( 'NONE',  ( 1.000000000000000000, 0.000000000000000000, 0.000000000000000000 ) ) ;
#281 = CIRCLE ( 'NONE', #403, 9.525000000000000355 ) ;
#282 = EDGE_CURVE ( 'NONE', #156, #312, #130, .T. ) ;
#283 = CIRCLE ( 'NONE', #77, 9.525000000000000355 ) ;
#284 = AXIS2_PLACEMENT_3D ( 'NONE', #142, #174, #328 ) ;
#285 = ORIENTED_EDGE ( 'NONE', *, *, #168, .T. ) ;
#286 = CC_DESIGN_DATE_AND_TIME_ASSIGNMENT ( #17, #346, ( #393 ) ) ;
#287 = EDGE_LOOP ( 'NONE', ( #187, #364 ) ) ;
#288 = VECTOR ( 'NONE', #96, 1000.000000000000000 ) ;
#289 = CARTESIAN_POINT ( 'NONE',  ( -7.940000000000001279, 0.000000000000000000, 3.180000000000000160 ) ) ;
#290 = CARTESIAN_POINT ( 'NONE',  ( 0.000000000000000000, 0.000000000000000000, 3.180000000000000160 ) ) ;
#291 = LINE ( 'NONE', #67, #210 ) ;
#292 = COORDINATED_UNIVERSAL_TIME_OFFSET ( 5, 0, .BEHIND. ) ;
#293 = ORIENTED_EDGE ( 'NONE', *, *, #82, .F. ) ;
#294 = AXIS2_PLACEMENT_3D ( 'NONE', #127, #165, #366 ) ;
#295 = DATE_AND_TIME ( #303, #386 ) ;
#296 = EDGE_CURVE ( 'NONE', #237, #4, #61, .T. ) ;
#297 = PERSON_AND_ORGANIZATION_ROLE ( 'classification_officer' ) ;
#298 = CARTESIAN_POINT ( 'NONE',  ( -6.349999999999999645, 0.000000000000000000, 0.000000000000000000 ) ) ;
#299 = AXIS2_PLACEMENT_3D ( 'NONE', #335, #8, #126 ) ;
#300 = PRODUCT_RELATED_PRODUCT_CATEGORY ( 'detail', '', ( #97 ) ) ;
#301 = CIRCLE ( 'NONE', #220, 9.524999999999998579 ) ;
#302 = DIRECTION ( 'NONE',  ( -0.000000000000000000, -0.000000000000000000, -1.000000000000000000 ) ) ;
#303 = CALENDAR_DATE ( 2021, 23, 8 ) ;
#304 = CARTESIAN_POINT ( 'NONE',  ( -7.940000000000001279, 0.000000000000000000, 3.180000000000000160 ) ) ;
#305 = DIRECTION ( 'NONE',  ( -1.000000000000000000, 0.000000000000000000, 0.000000000000000000 ) ) ;
#306 = ORIENTED_EDGE ( 'NONE', *, *, #60, .F. ) ;
#307 =( NAMED_UNIT ( * ) SI_UNIT ( $, .STERADIAN. ) SOLID_ANGLE_UNIT ( ) );
#308 = SHAPE_DEFINITION_REPRESENTATION ( #269, #108 ) ;
#309 = ORIENTED_EDGE ( 'NONE', *, *, #221, .F. ) ;
#310 = CARTESIAN_POINT ( 'NONE',  ( -7.940000000000001279, 0.000000000000000000, 0.000000000000000000 ) ) ;
#311 = VECTOR ( 'NONE', #388, 1000.000000000000000 ) ;
#312 = VERTEX_POINT ( 'NONE', #259 ) ;
#313 = EDGE_CURVE ( 'NONE', #156, #387, #291, .T. ) ;
#314 = ORIENTED_EDGE ( 'NONE', *, *, #239, .F. ) ;
#315 = DIRECTION ( 'NONE',  ( 0.000000000000000000, 0.000000000000000000, 1.000000000000000000 ) ) ;
#316 = DATE_AND_TIME ( #140, #201 ) ;
#317 = DIRECTION ( 'NONE',  ( -0.000000000000000000, -0.000000000000000000, -1.000000000000000000 ) ) ;
#318 = EDGE_CURVE ( 'NONE', #4, #340, #357, .T. ) ;
#319 = ORIENTED_EDGE ( 'NONE', *, *, #132, .F. ) ;
#320 = FACE_OUTER_BOUND ( 'NONE', #406, .T. ) ;
#321 = APPROVAL ( #278, 'UNSPECIFIED' ) ;
#322 = PERSON_AND_ORGANIZATION_ROLE ( 'design_supplier' ) ;
#323 = VERTEX_POINT ( 'NONE', #36 ) ;
#324 = ORIENTED_EDGE ( 'NONE', *, *, #341, .F. ) ;
#325 = AXIS2_PLACEMENT_3D ( 'NONE', #401, #250, #59 ) ;
#326 = CYLINDRICAL_SURFACE ( 'NONE', #179, 9.525000000000000355 ) ;
#327 = APPROVAL_ROLE ( '' ) ;
#328 = DIRECTION ( 'NONE',  ( 1.000000000000000000, 0.000000000000000000, -0.000000000000000000 ) ) ;
#329 = CYLINDRICAL_SURFACE ( 'NONE', #69, 6.349999999999999645 ) ;
#330 = CC_DESIGN_PERSON_AND_ORGANIZATION_ASSIGNMENT ( #219, #297, ( #393 ) ) ;
#331 = ORIENTED_EDGE ( 'NONE', *, *, #221, .T. ) ;
#332 = ORIENTED_EDGE ( 'NONE', *, *, #188, .T. ) ;
#333 = DIRECTION ( 'NONE',  ( 1.000000000000000000, 0.000000000000000000, 0.000000000000000000 ) ) ;
#334 = DATE_AND_TIME ( #135, #211 ) ;
#335 = CARTESIAN_POINT ( 'NONE',  ( -7.940000000000001279, 0.000000000000000000, 3.180000000000000160 ) ) ;
#336 = DIRECTION ( 'NONE',  ( 0.000000000000000000, 0.000000000000000000, 1.000000000000000000 ) ) ;
#337 = DIRECTION ( 'NONE',  ( -0.000000000000000000, -0.000000000000000000, -1.000000000000000000 ) ) ;
#338 = ADVANCED_FACE ( 'NONE', ( #204, #70, #394, #93 ), #99, .T. ) ;
#339 = DIRECTION ( 'NONE',  ( -0.000000000000000000, -0.000000000000000000, -1.000000000000000000 ) ) ;
#340 = VERTEX_POINT ( 'NONE', #100 ) ;
#341 = EDGE_CURVE ( 'NONE', #147, #26, #217, .T. ) ;
#342 = CYLINDRICAL_SURFACE ( 'NONE', #22, 0.5461000000000006960 ) ;
#343 = ORIENTED_EDGE ( 'NONE', *, *, #313, .F. ) ;
#344 = AXIS2_PLACEMENT_3D ( 'NONE', #52, #149, #276 ) ;
#345 = ORIENTED_EDGE ( 'NONE', *, *, #132, .T. ) ;
#346 = DATE_TIME_ROLE ( 'classification_date' ) ;
#347 = EDGE_CURVE ( 'NONE', #137, #242, #6, .T. ) ;
#348 = CARTESIAN_POINT ( 'NONE',  ( 0.000000000000000000, 0.000000000000000000, 3.180000000000000160 ) ) ;
#349 = VECTOR ( 'NONE', #150, 1000.000000000000000 ) ;
#350 = FACE_OUTER_BOUND ( 'NONE', #351, .T. ) ;
#351 = EDGE_LOOP ( 'NONE', ( #263, #306, #331, #198 ) ) ;
#352 = AXIS2_PLACEMENT_3D ( 'NONE', #163, #367, #85 ) ;
#353 = COORDINATED_UNIVERSAL_TIME_OFFSET ( 5, 0, .BEHIND. ) ;
#354 = CYLINDRICAL_SURFACE ( 'NONE', #383, 0.5461000000000006960 ) ;
#355 = APPROVAL_STATUS ( 'not_yet_approved' ) ;
#356 = DIRECTION ( 'NONE',  ( 0.000000000000000000, 0.000000000000000000, 1.000000000000000000 ) ) ;
#357 = LINE ( 'NONE', #413, #371 ) ;
#358 = EDGE_CURVE ( 'NONE', #312, #405, #208, .T. ) ;
#359 = EDGE_LOOP ( 'NONE', ( #314, #228 ) ) ;
#360 = PRODUCT_DEFINITION ( 'UNKNOWN', '', #133, #391 ) ;
#361 = CARTESIAN_POINT ( 'NONE',  ( 7.940000000000001279, 0.000000000000000000, 0.000000000000000000 ) ) ;
#362 = ORIENTED_EDGE ( 'NONE', *, *, #60, .T. ) ;
#363 = ADVANCED_FACE ( 'NONE', ( #223 ), #139, .T. ) ;
#364 = ORIENTED_EDGE ( 'NONE', *, *, #389, .F. ) ;
#365 =( LENGTH_UNIT ( ) NAMED_UNIT ( * ) SI_UNIT ( .MILLI., .METRE. ) );
#366 = DIRECTION ( 'NONE',  ( 1.000000000000000000, 0.000000000000000000, 0.000000000000000000 ) ) ;
#367 = DIRECTION ( 'NONE',  ( -0.000000000000000000, -0.000000000000000000, -1.000000000000000000 ) ) ;
#368 = CARTESIAN_POINT ( 'NONE',  ( 9.525000000000000355, 1.166476076187853627E-15, 3.180000000000000160 ) ) ;
#369 = AXIS2_PLACEMENT_3D ( 'NONE', #161, #241, #333 ) ;
#370 = ADVANCED_FACE ( 'NONE', ( #145 ), #410, .F. ) ;
#371 = VECTOR ( 'NONE', #317, 1000.000000000000000 ) ;
#372 = APPROVAL_DATE_TIME ( #95, #255 ) ;
#373 = CARTESIAN_POINT ( 'NONE',  ( -8.486100000000002197, 0.000000000000000000, 0.000000000000000000 ) ) ;
#374 = ORIENTED_EDGE ( 'NONE', *, *, #82, .T. ) ;
#375 = CC_DESIGN_APPROVAL ( #321, ( #360 ) ) ;
#376 = CIRCLE ( 'NONE', #299, 0.5460999999999999188 ) ;
#377 = DIRECTION ( 'NONE',  ( 1.000000000000000000, 0.000000000000000000, 0.000000000000000000 ) ) ;
#378 = ORIENTED_EDGE ( 'NONE', *, *, #141, .T. ) ;
#379 = DIRECTION ( 'NONE',  ( 0.000000000000000000, 0.000000000000000000, 1.000000000000000000 ) ) ;
#380 = CARTESIAN_POINT ( 'NONE',  ( 0.000000000000000000, 0.000000000000000000, 0.000000000000000000 ) ) ;
#381 = AXIS2_PLACEMENT_3D ( 'NONE', #304, #53, #249 ) ;
#382 = ORIENTED_EDGE ( 'NONE', *, *, #136, .F. ) ;
#383 = AXIS2_PLACEMENT_3D ( 'NONE', #193, #124, #182 ) ;
#384 = CIRCLE ( 'NONE', #12, 0.5461000000000006960 ) ;
#385 = EDGE_LOOP ( 'NONE', ( #29, #324 ) ) ;
#386 = LOCAL_TIME ( 15, 36, 12.00000000000000000, #176 ) ;
#387 = VERTEX_POINT ( 'NONE', #227 ) ;
#388 = DIRECTION ( 'NONE',  ( -0.000000000000000000, -0.000000000000000000, -1.000000000000000000 ) ) ;
#389 = EDGE_CURVE ( 'NONE', #4, #237, #376, .T. ) ;
#390 = DIRECTION ( 'NONE',  ( 1.000000000000000000, 0.000000000000000000, 0.000000000000000000 ) ) ;
#391 = DESIGN_CONTEXT ( 'detailed design', #110, 'design' ) ;
#392 = ADVANCED_FACE ( 'NONE', ( #266 ), #64, .F. ) ;
#393 = SECURITY_CLASSIFICATION ( '', '', #205 ) ;
#394 = FACE_BOUND ( 'NONE', #385, .T. ) ;
#395 = ORIENTED_EDGE ( 'NONE', *, *, #136, .T. ) ;
#396 = DIRECTION ( 'NONE',  ( 0.000000000000000000, 0.000000000000000000, 1.000000000000000000 ) ) ;
#397 = ADVANCED_FACE ( 'NONE', ( #157 ), #326, .T. ) ;
#398 = DIRECTION ( 'NONE',  ( -1.000000000000000000, 0.000000000000000000, 0.000000000000000000 ) ) ;
#399 = ORIENTED_EDGE ( 'NONE', *, *, #282, .T. ) ;
#400 = APPLICATION_CONTEXT ( 'configuration controlled 3d designs of mechanical parts and assemblies' ) ;
#401 = CARTESIAN_POINT ( 'NONE',  ( -7.940000000000001279, 0.000000000000000000, 0.000000000000000000 ) ) ;
#402 = ADVANCED_FACE ( 'NONE', ( #125 ), #354, .F. ) ;
#403 = AXIS2_PLACEMENT_3D ( 'NONE', #50, #396, #274 ) ;
#404 = CYLINDRICAL_SURFACE ( 'NONE', #91, 6.349999999999999645 ) ;
#405 = VERTEX_POINT ( 'NONE', #44 ) ;
#406 = EDGE_LOOP ( 'NONE', ( #319, #190, #15, #104 ) ) ;
#407 = CC_DESIGN_PERSON_AND_ORGANIZATION_ASSIGNMENT ( #409, #322, ( #133 ) ) ;
#408 = EDGE_LOOP ( 'NONE', ( #134, #332 ) ) ;
#409 = PERSON_AND_ORGANIZATION ( #23, #194 ) ;
#410 = PLANE ( 'NONE',  #284 ) ;
#411 = APPROVAL_PERSON_ORGANIZATION ( #248, #321, #327 ) ;
#412 = AXIS2_PLACEMENT_3D ( 'NONE', #361, #245, #83 ) ;
#413 = CARTESIAN_POINT ( 'NONE',  ( -7.393900000000001249, 6.687796170143695477E-17, 3.180000000000000160 ) ) ;
#414 = DIRECTION ( 'NONE',  ( 1.000000000000000000, 0.000000000000000000, 0.000000000000000000 ) ) ;
#415 = ORIENTED_EDGE ( 'NONE', *, *, #296, .T. ) ;
ENDSEC;
END-ISO-10303-21;
