ISO-10303-21;
HEADER;
FILE_DESCRIPTION (( 'STEP AP203' ),
    '1' );
FILE_NAME ('Web Model 11878_11890.step',
    '2019-01-02T18:31:07',
    ( '' ),
    ( '' ),
    'SwSTEP 2.0',
    'SolidWorks 2016',
    '' );
FILE_SCHEMA (( 'CONFIG_CONTROL_DESIGN' ));
ENDSEC;

DATA;
#1 = CARTESIAN_POINT ( 'NONE',  ( 2.450000000000003700, 1.530808498934191500E-015, -12.50000000000000000 ) ) ;
#2 = VECTOR ( 'NONE', #175, 1000.000000000000000 ) ;
#3 = ORIENTED_EDGE ( 'NONE', *, *, #104, .F. ) ;
#4 = PERSON_AND_ORGANIZATION ( #87, #183 ) ;
#5 = CC_DESIGN_PERSON_AND_ORGANIZATION_ASSIGNMENT ( #103, #165, ( #159 ) ) ;
#6 = APPLICATION_CONTEXT ( 'configuration controlled 3d designs of mechanical parts and assemblies' ) ;
#7 = DIRECTION ( 'NONE',  ( 1.000000000000000000, -0.0000000000000000000, -0.0000000000000000000 ) ) ;
#8 = EDGE_LOOP ( 'NONE', ( #251, #60, #258, #231 ) ) ;
#9 = CARTESIAN_POINT ( 'NONE',  ( -2.500000000000000000, 0.0000000000000000000, 0.0000000000000000000 ) ) ;
#10 = ADVANCED_BREP_SHAPE_REPRESENTATION ( 'Web Model 11878_11890', ( #63, #21 ), #140 ) ;
#11 = UNCERTAINTY_MEASURE_WITH_UNIT (LENGTH_MEASURE( 1.000000000000000100E-005 ), #163, 'distance_accuracy_value', 'NONE');
#12 = FACE_OUTER_BOUND ( 'NONE', #119, .T. ) ;
#13 = CALENDAR_DATE ( 2019, 2, 1 ) ;
#14 = EDGE_CURVE ( 'NONE', #43, #122, #234, .T. ) ;
#15 = CC_DESIGN_APPROVAL ( #207, ( #95 ) ) ;
#16 = PERSON_AND_ORGANIZATION ( #87, #183 ) ;
#17 = ORIENTED_EDGE ( 'NONE', *, *, #208, .T. ) ;
#18 = ADVANCED_FACE ( 'NONE', ( #228 ), #225, .T. ) ;
#19 = AXIS2_PLACEMENT_3D ( 'NONE', #272, #215, #160 ) ;
#20 = COORDINATED_UNIVERSAL_TIME_OFFSET ( 5, 0, .BEHIND. ) ;
#21 = AXIS2_PLACEMENT_3D ( 'NONE', #54, #221, #124 ) ;
#22 = CARTESIAN_POINT ( 'NONE',  ( 2.500000000000000000, 0.0000000000000000000, 0.0000000000000000000 ) ) ;
#23 = DIRECTION ( 'NONE',  ( 0.0000000000000000000, 0.0000000000000000000, -1.000000000000000000 ) ) ;
#24 = DIRECTION ( 'NONE',  ( 0.0000000000000000000, 0.0000000000000000000, -1.000000000000000000 ) ) ;
#25 = EDGE_LOOP ( 'NONE', ( #199, #17, #152, #172 ) ) ;
#26 = DIRECTION ( 'NONE',  ( 0.0000000000000000000, 0.0000000000000000000, -1.000000000000000000 ) ) ;
#27 = APPROVAL ( #96, 'UNSPECIFIED' ) ;
#28 = APPROVAL_ROLE ( '' ) ;
#29 = AXIS2_PLACEMENT_3D ( 'NONE', #239, #240, #44 ) ;
#30 = VERTEX_POINT ( 'NONE', #137 ) ;
#31 = LOCAL_TIME ( 13, 31, 7.000000000000000000, #130 ) ;
#32 = EDGE_LOOP ( 'NONE', ( #212, #189, #174, #216 ) ) ;
#33 = PERSON_AND_ORGANIZATION ( #87, #183 ) ;
#34 = AXIS2_PLACEMENT_3D ( 'NONE', #274, #178, #194 ) ;
#35 = VERTEX_POINT ( 'NONE', #213 ) ;
#36 = APPROVAL_PERSON_ORGANIZATION ( #154, #27, #28 ) ;
#37 = VECTOR ( 'NONE', #181, 1000.000000000000000 ) ;
#38 = ORIENTED_EDGE ( 'NONE', *, *, #55, .T. ) ;
#39 = DATE_AND_TIME ( #128, #138 ) ;
#40 = DIRECTION ( 'NONE',  ( 0.0000000000000000000, 0.0000000000000000000, 1.000000000000000000 ) ) ;
#41 = AXIS2_PLACEMENT_3D ( 'NONE', #100, #7, #255 ) ;
#42 = CARTESIAN_POINT ( 'NONE',  ( 2.450000000000003700, 0.0000000000000000000, 0.0000000000000000000 ) ) ;
#43 = VERTEX_POINT ( 'NONE', #271 ) ;
#44 = DIRECTION ( 'NONE',  ( 0.0000000000000000000, 0.0000000000000000000, 1.000000000000000000 ) ) ;
#45 = ADVANCED_FACE ( 'NONE', ( #263 ), #102, .T. ) ;
#46 = DIRECTION ( 'NONE',  ( -0.7071067811865597900, 0.0000000000000000000, 0.7071067811865352500 ) ) ;
#47 = CARTESIAN_POINT ( 'NONE',  ( 2.500000000000000000, 0.0000000000000000000, 0.0000000000000000000 ) ) ;
#48 = CIRCLE ( 'NONE', #268, 12.50000000000000000 ) ;
#49 = ORIENTED_EDGE ( 'NONE', *, *, #104, .T. ) ;
#50 = PERSON_AND_ORGANIZATION ( #87, #183 ) ;
#51 = DIRECTION ( 'NONE',  ( 0.0000000000000000000, 0.0000000000000000000, -1.000000000000000000 ) ) ;
#52 = PRODUCT_DEFINITION_SHAPE ( 'NONE', 'NONE',  #159 ) ;
#53 = AXIS2_PLACEMENT_3D ( 'NONE', #22, #218, #114 ) ;
#54 = CARTESIAN_POINT ( 'NONE',  ( 0.0000000000000000000, 0.0000000000000000000, 0.0000000000000000000 ) ) ;
#55 = EDGE_CURVE ( 'NONE', #122, #43, #74, .T. ) ;
#56 = SHAPE_DEFINITION_REPRESENTATION ( #52, #10 ) ;
#57 = CIRCLE ( 'NONE', #226, 12.45000000000000600 ) ;
#58 = APPROVAL_DATE_TIME ( #39, #135 ) ;
#59 = CC_DESIGN_APPROVAL ( #27, ( #232 ) ) ;
#60 = ORIENTED_EDGE ( 'NONE', *, *, #90, .T. ) ;
#61 = ADVANCED_FACE ( 'NONE', ( #273 ), #162, .T. ) ;
#62 = EDGE_CURVE ( 'NONE', #265, #35, #57, .T. ) ;
#63 = MANIFOLD_SOLID_BREP ( 'Chamfer1', #109 ) ;
#64 = FACE_OUTER_BOUND ( 'NONE', #32, .T. ) ;
#65 = APPROVAL_PERSON_ORGANIZATION ( #33, #207, #81 ) ;
#66 = CC_DESIGN_APPROVAL ( #135, ( #159 ) ) ;
#67 = ORIENTED_EDGE ( 'NONE', *, *, #184, .F. ) ;
#68 = DIRECTION ( 'NONE',  ( 1.000000000000000000, 0.0000000000000000000, 0.0000000000000000000 ) ) ;
#69 = CARTESIAN_POINT ( 'NONE',  ( -2.450000000000000200, 0.0000000000000000000, 12.50000000000000000 ) ) ;
#70 = VECTOR ( 'NONE', #192, 1000.000000000000000 ) ;
#71 = CALENDAR_DATE ( 2019, 2, 1 ) ;
#72 = DIRECTION ( 'NONE',  ( 1.000000000000000000, -0.0000000000000000000, -0.0000000000000000000 ) ) ;
#73 = CARTESIAN_POINT ( 'NONE',  ( 2.500000000000000000, 1.524685264938455400E-015, -12.45000000000000600 ) ) ;
#74 = CIRCLE ( 'NONE', #236, 12.50000000000000000 ) ;
#75 = PRODUCT_RELATED_PRODUCT_CATEGORY ( 'detail', '', ( #210 ) ) ;
#76 = DIRECTION ( 'NONE',  ( 1.000000000000000000, -0.0000000000000000000, -0.0000000000000000000 ) ) ;
#77 = CARTESIAN_POINT ( 'NONE',  ( 2.500000000000000000, 1.530808498934191500E-015, -12.50000000000000000 ) ) ;
#78 = AXIS2_PLACEMENT_3D ( 'NONE', #253, #223, #24 ) ;
#79 = CALENDAR_DATE ( 2019, 2, 1 ) ;
#80 = CC_DESIGN_DATE_AND_TIME_ASSIGNMENT ( #97, #145, ( #159 ) ) ;
#81 = APPROVAL_ROLE ( '' ) ;
#82 = ORIENTED_EDGE ( 'NONE', *, *, #62, .F. ) ;
#83 = COORDINATED_UNIVERSAL_TIME_OFFSET ( 5, 0, .BEHIND. ) ;
#84 = EDGE_CURVE ( 'NONE', #35, #43, #150, .T. ) ;
#85 = CC_DESIGN_PERSON_AND_ORGANIZATION_ASSIGNMENT ( #4, #205, ( #95 ) ) ;
#86 = DATE_AND_TIME ( #13, #200 ) ;
#87 = PERSON ( 'UNSPECIFIED', 'UNSPECIFIED', 'UNSPECIFIED', ('UNSPECIFIED'), ('UNSPECIFIED'), ('UNSPECIFIED') ) ;
#88 = ORIENTED_EDGE ( 'NONE', *, *, #116, .T. ) ;
#89 = CARTESIAN_POINT ( 'NONE',  ( -2.500000000000000000, 0.0000000000000000000, 0.0000000000000000000 ) ) ;
#90 = EDGE_CURVE ( 'NONE', #158, #94, #105, .T. ) ;
#91 = VECTOR ( 'NONE', #46, 1000.000000000000000 ) ;
#92 = CARTESIAN_POINT ( 'NONE',  ( -2.450000000000000200, 1.530808498934191500E-015, 12.50000000000000000 ) ) ;
#93 = APPLICATION_CONTEXT ( 'configuration controlled 3d designs of mechanical parts and assemblies' ) ;
#94 = VERTEX_POINT ( 'NONE', #69 ) ;
#95 = SECURITY_CLASSIFICATION ( '', '', #147 ) ;
#96 = APPROVAL_STATUS ( 'not_yet_approved' ) ;
#97 = DATE_AND_TIME ( #79, #31 ) ;
#98 = DIRECTION ( 'NONE',  ( 0.7071067811865597900, 0.0000000000000000000, -0.7071067811865352500 ) ) ;
#99 = AXIS2_PLACEMENT_3D ( 'NONE', #89, #115, #275 ) ;
#100 = CARTESIAN_POINT ( 'NONE',  ( -2.450000000000000200, 0.0000000000000000000, 0.0000000000000000000 ) ) ;
#101 = DIRECTION ( 'NONE',  ( 1.000000000000000000, -0.0000000000000000000, -0.0000000000000000000 ) ) ;
#102 = CYLINDRICAL_SURFACE ( 'NONE', #34, 12.50000000000000000 ) ;
#103 = PERSON_AND_ORGANIZATION ( #87, #183 ) ;
#104 = EDGE_CURVE ( 'NONE', #35, #265, #161, .T. ) ;
#105 = LINE ( 'NONE', #92, #2 ) ;
#106 = VERTEX_POINT ( 'NONE', #132 ) ;
#107 = ORIENTED_EDGE ( 'NONE', *, *, #131, .T. ) ;
#108 = CONICAL_SURFACE ( 'NONE', #217, 12.50000000000000000, 0.7853981633974309600 ) ;
#109 = CLOSED_SHELL ( 'NONE', ( #238, #110, #45, #61, #134, #153, #18, #214 ) ) ;
#110 = ADVANCED_FACE ( 'NONE', ( #171 ), #247, .T. ) ;
#111 = AXIS2_PLACEMENT_3D ( 'NONE', #9, #201, #23 ) ;
#112 = DIRECTION ( 'NONE',  ( -1.000000000000000000, 0.0000000000000000000, 0.0000000000000000000 ) ) ;
#113 = PLANE ( 'NONE',  #78 ) ;
#114 = DIRECTION ( 'NONE',  ( 0.0000000000000000000, 0.0000000000000000000, 1.000000000000000000 ) ) ;
#115 = DIRECTION ( 'NONE',  ( -1.000000000000000000, -0.0000000000000000000, -0.0000000000000000000 ) ) ;
#116 = EDGE_CURVE ( 'NONE', #158, #106, #118, .T. ) ;
#117 =( NAMED_UNIT ( * ) PLANE_ANGLE_UNIT ( ) SI_UNIT ( $, .RADIAN. ) );
#118 = CIRCLE ( 'NONE', #99, 12.45000000000000300 ) ;
#119 = EDGE_LOOP ( 'NONE', ( #49, #148 ) ) ;
#120 = APPLICATION_PROTOCOL_DEFINITION ( 'international standard', 'config_control_design', 1994, #93 ) ;
#121 = PLANE ( 'NONE',  #123 ) ;
#122 = VERTEX_POINT ( 'NONE', #1 ) ;
#123 = AXIS2_PLACEMENT_3D ( 'NONE', #197, #243, #51 ) ;
#124 = DIRECTION ( 'NONE',  ( 1.000000000000000000, 0.0000000000000000000, 0.0000000000000000000 ) ) ;
#125 = EDGE_CURVE ( 'NONE', #43, #94, #233, .T. ) ;
#126 = LINE ( 'NONE', #77, #37 ) ;
#127 = ORIENTED_EDGE ( 'NONE', *, *, #211, .T. ) ;
#128 = CALENDAR_DATE ( 2019, 2, 1 ) ;
#129 = VECTOR ( 'NONE', #98, 1000.000000000000000 ) ;
#130 = COORDINATED_UNIVERSAL_TIME_OFFSET ( 5, 0, .BEHIND. ) ;
#131 = EDGE_CURVE ( 'NONE', #106, #158, #227, .T. ) ;
#132 = CARTESIAN_POINT ( 'NONE',  ( -2.500000000000000000, 0.0000000000000000000, -12.45000000000000300 ) ) ;
#133 = ORIENTED_EDGE ( 'NONE', *, *, #84, .F. ) ;
#134 = ADVANCED_FACE ( 'NONE', ( #12 ), #113, .T. ) ;
#135 = APPROVAL ( #224, 'UNSPECIFIED' ) ;
#136 = CARTESIAN_POINT ( 'NONE',  ( 2.500000000000000000, 0.0000000000000000000, 0.0000000000000000000 ) ) ;
#137 = CARTESIAN_POINT ( 'NONE',  ( -2.450000000000000200, 1.530808498934191500E-015, -12.50000000000000000 ) ) ;
#138 = LOCAL_TIME ( 13, 31, 7.000000000000000000, #20 ) ;
#139 = DIRECTION ( 'NONE',  ( 0.0000000000000000000, 0.0000000000000000000, -1.000000000000000000 ) ) ;
#140 =( GEOMETRIC_REPRESENTATION_CONTEXT ( 3 ) GLOBAL_UNCERTAINTY_ASSIGNED_CONTEXT ( ( #11 ) ) GLOBAL_UNIT_ASSIGNED_CONTEXT ( ( #163, #117, #261 ) ) REPRESENTATION_CONTEXT ( 'NONE', 'WORKASPACE' ) );
#141 = CARTESIAN_POINT ( 'NONE',  ( 2.500000000000000000, 1.527746881936323600E-015, -12.45000000000000600 ) ) ;
#142 = EDGE_LOOP ( 'NONE', ( #107, #88 ) ) ;
#143 = PERSON_AND_ORGANIZATION ( #87, #183 ) ;
#144 = CARTESIAN_POINT ( 'NONE',  ( -2.500000000000000000, 1.527746881936323400E-015, 12.45000000000000300 ) ) ;
#145 = DATE_TIME_ROLE ( 'creation_date' ) ;
#146 = APPROVAL_DATE_TIME ( #86, #207 ) ;
#147 = SECURITY_CLASSIFICATION_LEVEL ( 'unclassified' ) ;
#148 = ORIENTED_EDGE ( 'NONE', *, *, #62, .T. ) ;
#149 = CC_DESIGN_PERSON_AND_ORGANIZATION_ASSIGNMENT ( #143, #198, ( #210 ) ) ;
#150 = LINE ( 'NONE', #219, #91 ) ;
#151 = PERSON_AND_ORGANIZATION ( #87, #183 ) ;
#152 = ORIENTED_EDGE ( 'NONE', *, *, #229, .T. ) ;
#153 = ADVANCED_FACE ( 'NONE', ( #186 ), #121, .F. ) ;
#154 = PERSON_AND_ORGANIZATION ( #87, #183 ) ;
#155 = CC_DESIGN_PERSON_AND_ORGANIZATION_ASSIGNMENT ( #151, #185, ( #232 ) ) ;
#156 = DIRECTION ( 'NONE',  ( 0.0000000000000000000, 0.0000000000000000000, -1.000000000000000000 ) ) ;
#157 = DIRECTION ( 'NONE',  ( 0.0000000000000000000, 0.0000000000000000000, -1.000000000000000000 ) ) ;
#158 = VERTEX_POINT ( 'NONE', #144 ) ;
#159 = PRODUCT_DEFINITION ( 'UNKNOWN', '', #232, #252 ) ;
#160 = DIRECTION ( 'NONE',  ( 0.0000000000000000000, 0.0000000000000000000, -1.000000000000000000 ) ) ;
#161 = CIRCLE ( 'NONE', #19, 12.45000000000000600 ) ;
#162 = CYLINDRICAL_SURFACE ( 'NONE', #29, 12.50000000000000000 ) ;
#163 =( LENGTH_UNIT ( ) NAMED_UNIT ( * ) SI_UNIT ( .MILLI., .METRE. ) );
#164 = CARTESIAN_POINT ( 'NONE',  ( -2.450000000000000200, 0.0000000000000000000, 0.0000000000000000000 ) ) ;
#165 = PERSON_AND_ORGANIZATION_ROLE ( 'creator' ) ;
#166 = CC_DESIGN_PERSON_AND_ORGANIZATION_ASSIGNMENT ( #16, #182, ( #232 ) ) ;
#167 = CARTESIAN_POINT ( 'NONE',  ( -2.450000000000000200, 0.0000000000000000000, 0.0000000000000000000 ) ) ;
#168 = ORIENTED_EDGE ( 'NONE', *, *, #14, .F. ) ;
#169 = DATE_TIME_ROLE ( 'classification_date' ) ;
#170 = LINE ( 'NONE', #262, #129 ) ;
#171 = FACE_OUTER_BOUND ( 'NONE', #203, .T. ) ;
#172 = ORIENTED_EDGE ( 'NONE', *, *, #125, .F. ) ;
#173 = DIRECTION ( 'NONE',  ( -1.000000000000000000, 0.0000000000000000000, 0.0000000000000000000 ) ) ;
#174 = ORIENTED_EDGE ( 'NONE', *, *, #177, .T. ) ;
#175 = DIRECTION ( 'NONE',  ( 0.7071067811865597900, 8.659560562354782500E-017, 0.7071067811865352500 ) ) ;
#176 = CC_DESIGN_SECURITY_CLASSIFICATION ( #95, ( #232 ) ) ;
#177 = EDGE_CURVE ( 'NONE', #106, #30, #170, .T. ) ;
#178 = DIRECTION ( 'NONE',  ( -1.000000000000000000, -0.0000000000000000000, -0.0000000000000000000 ) ) ;
#179 = CARTESIAN_POINT ( 'NONE',  ( 2.500000000000000000, 0.0000000000000000000, 12.50000000000000000 ) ) ;
#180 = CARTESIAN_POINT ( 'NONE',  ( -2.450000000000000200, 0.0000000000000000000, 0.0000000000000000000 ) ) ;
#181 = DIRECTION ( 'NONE',  ( -1.000000000000000000, -0.0000000000000000000, -0.0000000000000000000 ) ) ;
#182 = PERSON_AND_ORGANIZATION_ROLE ( 'creator' ) ;
#183 = ORGANIZATION ( 'UNSPECIFIED', 'UNSPECIFIED', '' ) ;
#184 = EDGE_CURVE ( 'NONE', #265, #122, #190, .T. ) ;
#185 = PERSON_AND_ORGANIZATION_ROLE ( 'design_supplier' ) ;
#186 = FACE_OUTER_BOUND ( 'NONE', #142, .T. ) ;
#187 = APPROVAL_STATUS ( 'not_yet_approved' ) ;
#188 = AXIS2_PLACEMENT_3D ( 'NONE', #42, #173, #196 ) ;
#189 = ORIENTED_EDGE ( 'NONE', *, *, #131, .F. ) ;
#190 = LINE ( 'NONE', #73, #220 ) ;
#191 = ORIENTED_EDGE ( 'NONE', *, *, #125, .T. ) ;
#192 = DIRECTION ( 'NONE',  ( -1.000000000000000000, -0.0000000000000000000, -0.0000000000000000000 ) ) ;
#193 = CIRCLE ( 'NONE', #41, 12.50000000000000000 ) ;
#194 = DIRECTION ( 'NONE',  ( 0.0000000000000000000, 0.0000000000000000000, 1.000000000000000000 ) ) ;
#195 = DATE_AND_TIME ( #71, #206 ) ;
#196 = DIRECTION ( 'NONE',  ( 0.0000000000000000000, 0.0000000000000000000, -1.000000000000000000 ) ) ;
#197 = CARTESIAN_POINT ( 'NONE',  ( -2.500000000000000000, 0.0000000000000000000, 0.0000000000000000000 ) ) ;
#198 = PERSON_AND_ORGANIZATION_ROLE ( 'design_owner' ) ;
#199 = ORIENTED_EDGE ( 'NONE', *, *, #14, .T. ) ;
#200 = LOCAL_TIME ( 13, 31, 7.000000000000000000, #83 ) ;
#201 = DIRECTION ( 'NONE',  ( -1.000000000000000000, -0.0000000000000000000, -0.0000000000000000000 ) ) ;
#202 = AXIS2_PLACEMENT_3D ( 'NONE', #167, #101, #26 ) ;
#203 = EDGE_LOOP ( 'NONE', ( #82, #267, #168, #133 ) ) ;
#204 = EDGE_LOOP ( 'NONE', ( #244, #38, #191, #127 ) ) ;
#205 = PERSON_AND_ORGANIZATION_ROLE ( 'classification_officer' ) ;
#206 = LOCAL_TIME ( 13, 31, 7.000000000000000000, #241 ) ;
#207 = APPROVAL ( #187, 'UNSPECIFIED' ) ;
#208 = EDGE_CURVE ( 'NONE', #122, #30, #126, .T. ) ;
#209 = EDGE_LOOP ( 'NONE', ( #67, #3, #248, #269 ) ) ;
#210 = PRODUCT ( 'Web Model 11878_11890', 'Web Model 11878_11890', '', ( #242 ) ) ;
#211 = EDGE_CURVE ( 'NONE', #94, #30, #48, .T. ) ;
#212 = ORIENTED_EDGE ( 'NONE', *, *, #90, .F. ) ;
#213 = CARTESIAN_POINT ( 'NONE',  ( 2.500000000000000000, 0.0000000000000000000, 12.45000000000000600 ) ) ;
#214 = ADVANCED_FACE ( 'NONE', ( #64 ), #108, .T. ) ;
#215 = DIRECTION ( 'NONE',  ( 1.000000000000000000, 0.0000000000000000000, 0.0000000000000000000 ) ) ;
#216 = ORIENTED_EDGE ( 'NONE', *, *, #211, .F. ) ;
#217 = AXIS2_PLACEMENT_3D ( 'NONE', #164, #76, #260 ) ;
#218 = DIRECTION ( 'NONE',  ( -1.000000000000000000, 0.0000000000000000000, 0.0000000000000000000 ) ) ;
#219 = CARTESIAN_POINT ( 'NONE',  ( 2.500000000000000000, 0.0000000000000000000, 12.45000000000000600 ) ) ;
#220 = VECTOR ( 'NONE', #256, 1000.000000000000000 ) ;
#221 = DIRECTION ( 'NONE',  ( 0.0000000000000000000, 0.0000000000000000000, 1.000000000000000000 ) ) ;
#222 = APPLICATION_PROTOCOL_DEFINITION ( 'international standard', 'config_control_design', 1994, #6 ) ;
#223 = DIRECTION ( 'NONE',  ( 1.000000000000000000, 0.0000000000000000000, 0.0000000000000000000 ) ) ;
#224 = APPROVAL_STATUS ( 'not_yet_approved' ) ;
#225 = CONICAL_SURFACE ( 'NONE', #230, 12.45000000000000600, 0.7853981633974309600 ) ;
#226 = AXIS2_PLACEMENT_3D ( 'NONE', #47, #68, #157 ) ;
#227 = CIRCLE ( 'NONE', #111, 12.45000000000000300 ) ;
#228 = FACE_OUTER_BOUND ( 'NONE', #209, .T. ) ;
#229 = EDGE_CURVE ( 'NONE', #30, #94, #193, .T. ) ;
#230 = AXIS2_PLACEMENT_3D ( 'NONE', #136, #235, #40 ) ;
#231 = ORIENTED_EDGE ( 'NONE', *, *, #177, .F. ) ;
#232 = PRODUCT_DEFINITION_FORMATION_WITH_SPECIFIED_SOURCE ( 'ANY', '', #210, .NOT_KNOWN. ) ;
#233 = LINE ( 'NONE', #179, #70 ) ;
#234 = CIRCLE ( 'NONE', #188, 12.50000000000000000 ) ;
#235 = DIRECTION ( 'NONE',  ( -1.000000000000000000, 0.0000000000000000000, 0.0000000000000000000 ) ) ;
#236 = AXIS2_PLACEMENT_3D ( 'NONE', #237, #112, #156 ) ;
#237 = CARTESIAN_POINT ( 'NONE',  ( 2.450000000000003700, 0.0000000000000000000, 0.0000000000000000000 ) ) ;
#238 = ADVANCED_FACE ( 'NONE', ( #264 ), #257, .T. ) ;
#239 = CARTESIAN_POINT ( 'NONE',  ( 2.500000000000000000, 0.0000000000000000000, 0.0000000000000000000 ) ) ;
#240 = DIRECTION ( 'NONE',  ( -1.000000000000000000, -0.0000000000000000000, -0.0000000000000000000 ) ) ;
#241 = COORDINATED_UNIVERSAL_TIME_OFFSET ( 5, 0, .BEHIND. ) ;
#242 = MECHANICAL_CONTEXT ( 'NONE', #93, 'mechanical' ) ;
#243 = DIRECTION ( 'NONE',  ( 1.000000000000000000, 0.0000000000000000000, 0.0000000000000000000 ) ) ;
#244 = ORIENTED_EDGE ( 'NONE', *, *, #208, .F. ) ;
#245 = DATE_AND_TIME ( #259, #254 ) ;
#246 = APPROVAL_ROLE ( '' ) ;
#247 = CONICAL_SURFACE ( 'NONE', #53, 12.45000000000000600, 0.7853981633974309600 ) ;
#248 = ORIENTED_EDGE ( 'NONE', *, *, #84, .T. ) ;
#249 = COORDINATED_UNIVERSAL_TIME_OFFSET ( 5, 0, .BEHIND. ) ;
#250 = CC_DESIGN_DATE_AND_TIME_ASSIGNMENT ( #195, #169, ( #95 ) ) ;
#251 = ORIENTED_EDGE ( 'NONE', *, *, #116, .F. ) ;
#252 = DESIGN_CONTEXT ( 'detailed design', #6, 'design' ) ;
#253 = CARTESIAN_POINT ( 'NONE',  ( 2.500000000000000000, 0.0000000000000000000, 0.0000000000000000000 ) ) ;
#254 = LOCAL_TIME ( 13, 31, 7.000000000000000000, #249 ) ;
#255 = DIRECTION ( 'NONE',  ( 0.0000000000000000000, 0.0000000000000000000, -1.000000000000000000 ) ) ;
#256 = DIRECTION ( 'NONE',  ( -0.7071067811865597900, 8.659560562354782500E-017, -0.7071067811865352500 ) ) ;
#257 = CONICAL_SURFACE ( 'NONE', #202, 12.50000000000000000, 0.7853981633974309600 ) ;
#258 = ORIENTED_EDGE ( 'NONE', *, *, #229, .F. ) ;
#259 = CALENDAR_DATE ( 2019, 2, 1 ) ;
#260 = DIRECTION ( 'NONE',  ( 0.0000000000000000000, 0.0000000000000000000, -1.000000000000000000 ) ) ;
#261 =( NAMED_UNIT ( * ) SI_UNIT ( $, .STERADIAN. ) SOLID_ANGLE_UNIT ( ) );
#262 = CARTESIAN_POINT ( 'NONE',  ( -2.450000000000000200, 0.0000000000000000000, -12.50000000000000000 ) ) ;
#263 = FACE_OUTER_BOUND ( 'NONE', #25, .T. ) ;
#264 = FACE_OUTER_BOUND ( 'NONE', #8, .T. ) ;
#265 = VERTEX_POINT ( 'NONE', #141 ) ;
#266 = APPROVAL_PERSON_ORGANIZATION ( #50, #135, #246 ) ;
#267 = ORIENTED_EDGE ( 'NONE', *, *, #184, .T. ) ;
#268 = AXIS2_PLACEMENT_3D ( 'NONE', #180, #72, #139 ) ;
#269 = ORIENTED_EDGE ( 'NONE', *, *, #55, .F. ) ;
#270 = APPROVAL_DATE_TIME ( #245, #27 ) ;
#271 = CARTESIAN_POINT ( 'NONE',  ( 2.450000000000003700, 0.0000000000000000000, 12.50000000000000000 ) ) ;
#272 = CARTESIAN_POINT ( 'NONE',  ( 2.500000000000000000, 0.0000000000000000000, 0.0000000000000000000 ) ) ;
#273 = FACE_OUTER_BOUND ( 'NONE', #204, .T. ) ;
#274 = CARTESIAN_POINT ( 'NONE',  ( 2.500000000000000000, 0.0000000000000000000, 0.0000000000000000000 ) ) ;
#275 = DIRECTION ( 'NONE',  ( 0.0000000000000000000, 0.0000000000000000000, -1.000000000000000000 ) ) ;
ENDSEC;
END-ISO-10303-21;
