ISO-10303-21;
HEADER;
FILE_DESCRIPTION (( 'STEP AP203' ),
    '1' );
FILE_NAME ('Web Model 12661_12663.step',
    '2019-03-20T20:55:43',
    ( '' ),
    ( '' ),
    'SwSTEP 2.0',
    'SolidWorks 2018',
    '' );
FILE_SCHEMA (( 'CONFIG_CONTROL_DESIGN' ));
ENDSEC;

DATA;
#1 = DIRECTION ( 'NONE',  ( 1.000000000000000000, 0.0000000000000000000, -0.0000000000000000000 ) ) ;
#2 = PRODUCT_DEFINITION ( 'UNKNOWN', '', #18, #117 ) ;
#3 = CALENDAR_DATE ( 2019, 20, 3 ) ;
#4 = DIRECTION ( 'NONE',  ( 0.0000000000000000000, 0.0000000000000000000, 1.000000000000000000 ) ) ;
#5 = DIRECTION ( 'NONE',  ( 1.000000000000000000, 0.0000000000000000000, 0.0000000000000000000 ) ) ;
#6 = LINE ( 'NONE', #74, #133 ) ;
#7 = APPROVAL_STATUS ( 'not_yet_approved' ) ;
#8 = CALENDAR_DATE ( 2019, 20, 3 ) ;
#9 = UNCERTAINTY_MEASURE_WITH_UNIT (LENGTH_MEASURE( 1.000000000000000082E-05 ), #126, 'distance_accuracy_value', 'NONE');
#10 = AXIS2_PLACEMENT_3D ( 'NONE', #145, #19, #156 ) ;
#11 = PERSON_AND_ORGANIZATION ( #12, #108 ) ;
#12 = PERSON ( 'UNSPECIFIED', 'UNSPECIFIED', 'UNSPECIFIED', ('UNSPECIFIED'), ('UNSPECIFIED'), ('UNSPECIFIED') ) ;
#13 = FACE_OUTER_BOUND ( 'NONE', #30, .T. ) ;
#14 = ORIENTED_EDGE ( 'NONE', *, *, #109, .F. ) ;
#15 = CYLINDRICAL_SURFACE ( 'NONE', #160, 12.70000000000000462 ) ;
#16 = VERTEX_POINT ( 'NONE', #167 ) ;
#17 = CARTESIAN_POINT ( 'NONE',  ( -12.70000000000000462, 0.0000000000000000000, 3.000000000000000000 ) ) ;
#18 = PRODUCT_DEFINITION_FORMATION_WITH_SPECIFIED_SOURCE ( 'ANY', '', #141, .NOT_KNOWN. ) ;
#19 = DIRECTION ( 'NONE',  ( 0.0000000000000000000, 0.0000000000000000000, 1.000000000000000000 ) ) ;
#20 = ORIENTED_EDGE ( 'NONE', *, *, #82, .T. ) ;
#21 = APPROVAL_ROLE ( '' ) ;
#22 = DIRECTION ( 'NONE',  ( 1.000000000000000000, 0.0000000000000000000, 0.0000000000000000000 ) ) ;
#23 = ADVANCED_FACE ( 'NONE', ( #13 ), #142, .T. ) ;
#24 = VECTOR ( 'NONE', #63, 1000.000000000000000 ) ;
#25 = EDGE_LOOP ( 'NONE', ( #81, #85, #91, #162 ) ) ;
#26 = LOCAL_TIME ( 16, 55, 42.00000000000000000, #60 ) ;
#27 = COORDINATED_UNIVERSAL_TIME_OFFSET ( 5, 0, .BEHIND. ) ;
#28 = PERSON_AND_ORGANIZATION ( #12, #108 ) ;
#29 = CC_DESIGN_PERSON_AND_ORGANIZATION_ASSIGNMENT ( #87, #89, ( #18 ) ) ;
#30 = EDGE_LOOP ( 'NONE', ( #36, #20 ) ) ;
#31 = APPROVAL_PERSON_ORGANIZATION ( #28, #70, #21 ) ;
#32 = CC_DESIGN_PERSON_AND_ORGANIZATION_ASSIGNMENT ( #132, #104, ( #119 ) ) ;
#33 = CARTESIAN_POINT ( 'NONE',  ( 0.0000000000000000000, 0.0000000000000000000, 3.000000000000000000 ) ) ;
#34 = PRODUCT_DEFINITION_SHAPE ( 'NONE', 'NONE',  #2 ) ;
#35 = APPROVAL_ROLE ( '' ) ;
#36 = ORIENTED_EDGE ( 'NONE', *, *, #93, .T. ) ;
#37 = LOCAL_TIME ( 16, 55, 42.00000000000000000, #57 ) ;
#38 = CC_DESIGN_PERSON_AND_ORGANIZATION_ASSIGNMENT ( #11, #159, ( #141 ) ) ;
#39 = APPLICATION_CONTEXT ( 'configuration controlled 3d designs of mechanical parts and assemblies' ) ;
#40 = CARTESIAN_POINT ( 'NONE',  ( 0.0000000000000000000, 0.0000000000000000000, 3.000000000000000000 ) ) ;
#41 = CALENDAR_DATE ( 2019, 20, 3 ) ;
#42 = CC_DESIGN_SECURITY_CLASSIFICATION ( #119, ( #18 ) ) ;
#43 = CLOSED_SHELL ( 'NONE', ( #131, #107, #23, #52 ) ) ;
#44 = PERSON_AND_ORGANIZATION ( #12, #108 ) ;
#45 = DIRECTION ( 'NONE',  ( 0.0000000000000000000, 0.0000000000000000000, 1.000000000000000000 ) ) ;
#46 = DIRECTION ( 'NONE',  ( -1.000000000000000000, 0.0000000000000000000, 0.0000000000000000000 ) ) ;
#47 = DATE_AND_TIME ( #3, #26 ) ;
#48 = PRODUCT_RELATED_PRODUCT_CATEGORY ( 'detail', '', ( #141 ) ) ;
#49 = CARTESIAN_POINT ( 'NONE',  ( -12.70000000000000462, 0.0000000000000000000, 0.0000000000000000000 ) ) ;
#50 = APPROVAL_ROLE ( '' ) ;
#51 = APPROVAL_STATUS ( 'not_yet_approved' ) ;
#52 = ADVANCED_FACE ( 'NONE', ( #158 ), #73, .F. ) ;
#53 = CIRCLE ( 'NONE', #111, 12.70000000000000462 ) ;
#54 = EDGE_LOOP ( 'NONE', ( #170, #139, #71, #102 ) ) ;
#55 = CC_DESIGN_APPROVAL ( #70, ( #119 ) ) ;
#56 = APPROVAL_DATE_TIME ( #146, #70 ) ;
#57 = COORDINATED_UNIVERSAL_TIME_OFFSET ( 5, 0, .BEHIND. ) ;
#58 = DIRECTION ( 'NONE',  ( -0.0000000000000000000, -0.0000000000000000000, -1.000000000000000000 ) ) ;
#59 = CC_DESIGN_PERSON_AND_ORGANIZATION_ASSIGNMENT ( #66, #171, ( #18 ) ) ;
#60 = COORDINATED_UNIVERSAL_TIME_OFFSET ( 5, 0, .BEHIND. ) ;
#61 = CARTESIAN_POINT ( 'NONE',  ( 0.0000000000000000000, 0.0000000000000000000, 0.0000000000000000000 ) ) ;
#62 = COORDINATED_UNIVERSAL_TIME_OFFSET ( 5, 0, .BEHIND. ) ;
#63 = DIRECTION ( 'NONE',  ( -0.0000000000000000000, -0.0000000000000000000, -1.000000000000000000 ) ) ;
#64 =( NAMED_UNIT ( * ) SI_UNIT ( $, .STERADIAN. ) SOLID_ANGLE_UNIT ( ) );
#65 = FACE_OUTER_BOUND ( 'NONE', #25, .T. ) ;
#66 = PERSON_AND_ORGANIZATION ( #12, #108 ) ;
#67 = AXIS2_PLACEMENT_3D ( 'NONE', #33, #58, #46 ) ;
#68 = VERTEX_POINT ( 'NONE', #76 ) ;
#69 = CIRCLE ( 'NONE', #10, 12.70000000000000462 ) ;
#70 = APPROVAL ( #90, 'UNSPECIFIED' ) ;
#71 = ORIENTED_EDGE ( 'NONE', *, *, #135, .T. ) ;
#72 = DIRECTION ( 'NONE',  ( 0.0000000000000000000, 0.0000000000000000000, 1.000000000000000000 ) ) ;
#73 = PLANE ( 'NONE',  #148 ) ;
#74 = CARTESIAN_POINT ( 'NONE',  ( 12.70000000000000462, 1.555301434917139024E-15, 3.000000000000000000 ) ) ;
#75 = LOCAL_TIME ( 16, 55, 42.00000000000000000, #136 ) ;
#76 = CARTESIAN_POINT ( 'NONE',  ( 12.70000000000000462, 1.555301434917139024E-15, 0.0000000000000000000 ) ) ;
#77 = APPLICATION_CONTEXT ( 'configuration controlled 3d designs of mechanical parts and assemblies' ) ;
#78 = ORIENTED_EDGE ( 'NONE', *, *, #165, .F. ) ;
#79 = DIRECTION ( 'NONE',  ( 0.0000000000000000000, 0.0000000000000000000, 1.000000000000000000 ) ) ;
#80 = CARTESIAN_POINT ( 'NONE',  ( 0.0000000000000000000, 0.0000000000000000000, 0.0000000000000000000 ) ) ;
#81 = ORIENTED_EDGE ( 'NONE', *, *, #82, .F. ) ;
#82 = EDGE_CURVE ( 'NONE', #16, #154, #115, .T. ) ;
#83 = DATE_AND_TIME ( #94, #37 ) ;
#84 = SHAPE_DEFINITION_REPRESENTATION ( #34, #175 ) ;
#85 = ORIENTED_EDGE ( 'NONE', *, *, #96, .T. ) ;
#86 = APPROVAL ( #7, 'UNSPECIFIED' ) ;
#87 = PERSON_AND_ORGANIZATION ( #12, #108 ) ;
#88 = DATE_AND_TIME ( #164, #123 ) ;
#89 = PERSON_AND_ORGANIZATION_ROLE ( 'creator' ) ;
#90 = APPROVAL_STATUS ( 'not_yet_approved' ) ;
#91 = ORIENTED_EDGE ( 'NONE', *, *, #109, .T. ) ;
#92 = CARTESIAN_POINT ( 'NONE',  ( -12.70000000000000462, 0.0000000000000000000, 3.000000000000000000 ) ) ;
#93 = EDGE_CURVE ( 'NONE', #154, #16, #144, .T. ) ;
#94 = CALENDAR_DATE ( 2019, 20, 3 ) ;
#95 = DIRECTION ( 'NONE',  ( 1.000000000000000000, 0.0000000000000000000, 0.0000000000000000000 ) ) ;
#96 = EDGE_CURVE ( 'NONE', #16, #68, #6, .T. ) ;
#97 = CARTESIAN_POINT ( 'NONE',  ( 0.0000000000000000000, 0.0000000000000000000, 3.000000000000000000 ) ) ;
#98 = DIRECTION ( 'NONE',  ( 0.0000000000000000000, 0.0000000000000000000, 1.000000000000000000 ) ) ;
#99 = DIRECTION ( 'NONE',  ( -0.0000000000000000000, -0.0000000000000000000, -1.000000000000000000 ) ) ;
#100 = CC_DESIGN_PERSON_AND_ORGANIZATION_ASSIGNMENT ( #112, #114, ( #2 ) ) ;
#101 = APPROVAL_DATE_TIME ( #83, #166 ) ;
#102 = ORIENTED_EDGE ( 'NONE', *, *, #165, .T. ) ;
#103 = APPLICATION_PROTOCOL_DEFINITION ( 'international standard', 'config_control_design', 1994, #77 ) ;
#104 = PERSON_AND_ORGANIZATION_ROLE ( 'classification_officer' ) ;
#105 = MECHANICAL_CONTEXT ( 'NONE', #39, 'mechanical' ) ;
#106 = CC_DESIGN_APPROVAL ( #86, ( #2 ) ) ;
#107 = ADVANCED_FACE ( 'NONE', ( #155 ), #151, .T. ) ;
#108 = ORGANIZATION ( 'UNSPECIFIED', 'UNSPECIFIED', '' ) ;
#109 = EDGE_CURVE ( 'NONE', #68, #150, #69, .T. ) ;
#110 = APPROVAL_DATE_TIME ( #149, #86 ) ;
#111 = AXIS2_PLACEMENT_3D ( 'NONE', #143, #116, #5 ) ;
#112 = PERSON_AND_ORGANIZATION ( #12, #108 ) ;
#113 = DIRECTION ( 'NONE',  ( 1.000000000000000000, 0.0000000000000000000, -0.0000000000000000000 ) ) ;
#114 = PERSON_AND_ORGANIZATION_ROLE ( 'creator' ) ;
#115 = CIRCLE ( 'NONE', #121, 12.70000000000000462 ) ;
#116 = DIRECTION ( 'NONE',  ( 0.0000000000000000000, 0.0000000000000000000, 1.000000000000000000 ) ) ;
#117 = DESIGN_CONTEXT ( 'detailed design', #77, 'design' ) ;
#118 = AXIS2_PLACEMENT_3D ( 'NONE', #80, #79, #22 ) ;
#119 = SECURITY_CLASSIFICATION ( '', '', #173 ) ;
#120 = APPROVAL_PERSON_ORGANIZATION ( #172, #86, #50 ) ;
#121 = AXIS2_PLACEMENT_3D ( 'NONE', #124, #4, #122 ) ;
#122 = DIRECTION ( 'NONE',  ( 1.000000000000000000, 0.0000000000000000000, 0.0000000000000000000 ) ) ;
#123 = LOCAL_TIME ( 16, 55, 42.00000000000000000, #27 ) ;
#124 = CARTESIAN_POINT ( 'NONE',  ( 0.0000000000000000000, 0.0000000000000000000, 3.000000000000000000 ) ) ;
#125 = DATE_TIME_ROLE ( 'classification_date' ) ;
#126 =( LENGTH_UNIT ( ) NAMED_UNIT ( * ) SI_UNIT ( .MILLI., .METRE. ) );
#127 = APPLICATION_PROTOCOL_DEFINITION ( 'international standard', 'config_control_design', 1994, #39 ) ;
#128 = APPROVAL_PERSON_ORGANIZATION ( #44, #166, #35 ) ;
#129 =( NAMED_UNIT ( * ) PLANE_ANGLE_UNIT ( ) SI_UNIT ( $, .RADIAN. ) );
#130 = MANIFOLD_SOLID_BREP ( '84715410-1-solid1', #43 ) ;
#131 = ADVANCED_FACE ( 'NONE', ( #65 ), #15, .T. ) ;
#132 = PERSON_AND_ORGANIZATION ( #12, #108 ) ;
#133 = VECTOR ( 'NONE', #140, 1000.000000000000000 ) ;
#134 = CC_DESIGN_DATE_AND_TIME_ASSIGNMENT ( #47, #125, ( #119 ) ) ;
#135 = EDGE_CURVE ( 'NONE', #154, #150, #153, .T. ) ;
#136 = COORDINATED_UNIVERSAL_TIME_OFFSET ( 5, 0, .BEHIND. ) ;
#137 = EDGE_LOOP ( 'NONE', ( #78, #14 ) ) ;
#138 = CC_DESIGN_DATE_AND_TIME_ASSIGNMENT ( #88, #169, ( #2 ) ) ;
#139 = ORIENTED_EDGE ( 'NONE', *, *, #93, .F. ) ;
#140 = DIRECTION ( 'NONE',  ( -0.0000000000000000000, -0.0000000000000000000, -1.000000000000000000 ) ) ;
#141 = PRODUCT ( 'Web Model 12661_12663', 'Web Model 12661_12663', '', ( #105 ) ) ;
#142 = PLANE ( 'NONE',  #168 ) ;
#143 = CARTESIAN_POINT ( 'NONE',  ( 0.0000000000000000000, 0.0000000000000000000, 0.0000000000000000000 ) ) ;
#144 = CIRCLE ( 'NONE', #163, 12.70000000000000462 ) ;
#145 = CARTESIAN_POINT ( 'NONE',  ( 0.0000000000000000000, 0.0000000000000000000, 0.0000000000000000000 ) ) ;
#146 = DATE_AND_TIME ( #41, #75 ) ;
#147 = LOCAL_TIME ( 16, 55, 42.00000000000000000, #62 ) ;
#148 = AXIS2_PLACEMENT_3D ( 'NONE', #61, #98, #1 ) ;
#149 = DATE_AND_TIME ( #8, #147 ) ;
#150 = VERTEX_POINT ( 'NONE', #49 ) ;
#151 = CYLINDRICAL_SURFACE ( 'NONE', #67, 12.70000000000000462 ) ;
#152 = CARTESIAN_POINT ( 'NONE',  ( 0.0000000000000000000, 0.0000000000000000000, 3.000000000000000000 ) ) ;
#153 = LINE ( 'NONE', #92, #24 ) ;
#154 = VERTEX_POINT ( 'NONE', #17 ) ;
#155 = FACE_OUTER_BOUND ( 'NONE', #54, .T. ) ;
#156 = DIRECTION ( 'NONE',  ( 1.000000000000000000, 0.0000000000000000000, 0.0000000000000000000 ) ) ;
#157 = DIRECTION ( 'NONE',  ( -1.000000000000000000, 0.0000000000000000000, 0.0000000000000000000 ) ) ;
#158 = FACE_OUTER_BOUND ( 'NONE', #137, .T. ) ;
#159 = PERSON_AND_ORGANIZATION_ROLE ( 'design_owner' ) ;
#160 = AXIS2_PLACEMENT_3D ( 'NONE', #40, #99, #157 ) ;
#161 =( GEOMETRIC_REPRESENTATION_CONTEXT ( 3 ) GLOBAL_UNCERTAINTY_ASSIGNED_CONTEXT ( ( #9 ) ) GLOBAL_UNIT_ASSIGNED_CONTEXT ( ( #126, #129, #64 ) ) REPRESENTATION_CONTEXT ( 'NONE', 'WORKASPACE' ) );
#162 = ORIENTED_EDGE ( 'NONE', *, *, #135, .F. ) ;
#163 = AXIS2_PLACEMENT_3D ( 'NONE', #152, #72, #95 ) ;
#164 = CALENDAR_DATE ( 2019, 20, 3 ) ;
#165 = EDGE_CURVE ( 'NONE', #150, #68, #53, .T. ) ;
#166 = APPROVAL ( #51, 'UNSPECIFIED' ) ;
#167 = CARTESIAN_POINT ( 'NONE',  ( 12.70000000000000462, 1.555301434917139024E-15, 3.000000000000000000 ) ) ;
#168 = AXIS2_PLACEMENT_3D ( 'NONE', #97, #45, #113 ) ;
#169 = DATE_TIME_ROLE ( 'creation_date' ) ;
#170 = ORIENTED_EDGE ( 'NONE', *, *, #96, .F. ) ;
#171 = PERSON_AND_ORGANIZATION_ROLE ( 'design_supplier' ) ;
#172 = PERSON_AND_ORGANIZATION ( #12, #108 ) ;
#173 = SECURITY_CLASSIFICATION_LEVEL ( 'unclassified' ) ;
#174 = CC_DESIGN_APPROVAL ( #166, ( #18 ) ) ;
#175 = ADVANCED_BREP_SHAPE_REPRESENTATION ( 'Web Model 12661_12663', ( #130, #118 ), #161 ) ;
ENDSEC;
END-ISO-10303-21;
