ISO-10303-21;
HEADER;
FILE_DESCRIPTION (( 'STEP AP203' ),
    '1' );
FILE_NAME ('Web Model 43368_20660.step',
    '2022-03-16T14:20:39',
    ( '' ),
    ( '' ),
    'SwSTEP 2.0',
    'SolidWorks 2021',
    '' );
FILE_SCHEMA (( 'CONFIG_CONTROL_DESIGN' ));
ENDSEC;

DATA;
#1 = APPROVAL ( #9, 'UNSPECIFIED' ) ;
#2 = LOCAL_TIME ( 10, 20, 39.00000000000000000, #132 ) ;
#3 = CIRCLE ( 'NONE', #47, 10.00000000000000000 ) ;
#4 = PLANE ( 'NONE',  #144 ) ;
#5 = ADVANCED_FACE ( 'NONE', ( #169 ), #4, .F. ) ;
#6 = ORGANIZATION ( 'UNSPECIFIED', 'UNSPECIFIED', '' ) ;
#7 = CARTESIAN_POINT ( 'NONE',  ( 10.00000000000000000, 1.224646799147353256E-15, 0.000000000000000000 ) ) ;
#8 = PRODUCT_DEFINITION_SHAPE ( 'NONE', 'NONE',  #85 ) ;
#9 = APPROVAL_STATUS ( 'not_yet_approved' ) ;
#10 = DIRECTION ( 'NONE',  ( 1.000000000000000000, 0.000000000000000000, 0.000000000000000000 ) ) ;
#11 = VECTOR ( 'NONE', #86, 1000.000000000000000 ) ;
#12 = CARTESIAN_POINT ( 'NONE',  ( 0.000000000000000000, 0.000000000000000000, 0.5000000000000000000 ) ) ;
#13 = DIRECTION ( 'NONE',  ( 0.000000000000000000, 0.000000000000000000, 1.000000000000000000 ) ) ;
#14 = CYLINDRICAL_SURFACE ( 'NONE', #30, 10.00000000000000000 ) ;
#15 = UNCERTAINTY_MEASURE_WITH_UNIT (LENGTH_MEASURE( 1.000000000000000082E-05 ), #63, 'distance_accuracy_value', 'NONE');
#16 = ADVANCED_FACE ( 'NONE', ( #72 ), #167, .T. ) ;
#17 = COORDINATED_UNIVERSAL_TIME_OFFSET ( 5, 0, .BEHIND. ) ;
#18 = CALENDAR_DATE ( 2022, 16, 3 ) ;
#19 = ORIENTED_EDGE ( 'NONE', *, *, #93, .T. ) ;
#20 = APPROVAL_PERSON_ORGANIZATION ( #145, #1, #113 ) ;
#21 = APPLICATION_CONTEXT ( 'configuration controlled 3d designs of mechanical parts and assemblies' ) ;
#22 = PERSON ( 'UNSPECIFIED', 'UNSPECIFIED', 'UNSPECIFIED', ('UNSPECIFIED'), ('UNSPECIFIED'), ('UNSPECIFIED') ) ;
#23 = ORIENTED_EDGE ( 'NONE', *, *, #149, .F. ) ;
#24 = PRODUCT ( 'Web Model 43368_20660', 'Web Model 43368_20660', '', ( #89 ) ) ;
#25 = DIRECTION ( 'NONE',  ( 0.000000000000000000, 0.000000000000000000, 1.000000000000000000 ) ) ;
#26 = DIRECTION ( 'NONE',  ( 1.000000000000000000, 0.000000000000000000, 0.000000000000000000 ) ) ;
#27 = CARTESIAN_POINT ( 'NONE',  ( 0.000000000000000000, 0.000000000000000000, 0.5000000000000000000 ) ) ;
#28 = CARTESIAN_POINT ( 'NONE',  ( 0.000000000000000000, 0.000000000000000000, 0.5000000000000000000 ) ) ;
#29 = DIRECTION ( 'NONE',  ( -0.000000000000000000, -0.000000000000000000, -1.000000000000000000 ) ) ;
#30 = AXIS2_PLACEMENT_3D ( 'NONE', #27, #54, #170 ) ;
#31 = DATE_AND_TIME ( #146, #100 ) ;
#32 = DATE_AND_TIME ( #119, #106 ) ;
#33 = PERSON_AND_ORGANIZATION_ROLE ( 'classification_officer' ) ;
#34 = ORIENTED_EDGE ( 'NONE', *, *, #65, .F. ) ;
#35 = VERTEX_POINT ( 'NONE', #7 ) ;
#36 = VERTEX_POINT ( 'NONE', #112 ) ;
#37 = ORIENTED_EDGE ( 'NONE', *, *, #149, .T. ) ;
#38 = AXIS2_PLACEMENT_3D ( 'NONE', #121, #108, #97 ) ;
#39 = CALENDAR_DATE ( 2022, 16, 3 ) ;
#40 = DIRECTION ( 'NONE',  ( 0.000000000000000000, 0.000000000000000000, 1.000000000000000000 ) ) ;
#41 = APPLICATION_PROTOCOL_DEFINITION ( 'international standard', 'config_control_design', 1994, #123 ) ;
#42 = PERSON_AND_ORGANIZATION_ROLE ( 'design_owner' ) ;
#43 = SECURITY_CLASSIFICATION_LEVEL ( 'unclassified' ) ;
#44 = DATE_TIME_ROLE ( 'classification_date' ) ;
#45 = COORDINATED_UNIVERSAL_TIME_OFFSET ( 5, 0, .BEHIND. ) ;
#46 = PRODUCT_DEFINITION_FORMATION_WITH_SPECIFIED_SOURCE ( 'ANY', '', #24, .NOT_KNOWN. ) ;
#47 = AXIS2_PLACEMENT_3D ( 'NONE', #158, #117, #10 ) ;
#48 = EDGE_LOOP ( 'NONE', ( #37, #19 ) ) ;
#49 = LINE ( 'NONE', #127, #88 ) ;
#50 = CC_DESIGN_APPROVAL ( #120, ( #124 ) ) ;
#51 = PERSON_AND_ORGANIZATION ( #22, #6 ) ;
#52 = DIRECTION ( 'NONE',  ( -1.000000000000000000, 0.000000000000000000, 0.000000000000000000 ) ) ;
#53 = CLOSED_SHELL ( 'NONE', ( #92, #147, #16, #5 ) ) ;
#54 = DIRECTION ( 'NONE',  ( -0.000000000000000000, -0.000000000000000000, -1.000000000000000000 ) ) ;
#55 = PERSON_AND_ORGANIZATION ( #22, #6 ) ;
#56 = PERSON_AND_ORGANIZATION ( #22, #6 ) ;
#57 = CC_DESIGN_DATE_AND_TIME_ASSIGNMENT ( #32, #44, ( #124 ) ) ;
#58 =( GEOMETRIC_REPRESENTATION_CONTEXT ( 3 ) GLOBAL_UNCERTAINTY_ASSIGNED_CONTEXT ( ( #15 ) ) GLOBAL_UNIT_ASSIGNED_CONTEXT ( ( #63, #172, #87 ) ) REPRESENTATION_CONTEXT ( 'NONE', 'WORKASPACE' ) );
#59 = EDGE_CURVE ( 'NONE', #35, #153, #156, .T. ) ;
#60 = CC_DESIGN_DATE_AND_TIME_ASSIGNMENT ( #78, #107, ( #85 ) ) ;
#61 = VERTEX_POINT ( 'NONE', #74 ) ;
#62 = CARTESIAN_POINT ( 'NONE',  ( 0.000000000000000000, 0.000000000000000000, 0.000000000000000000 ) ) ;
#63 =( LENGTH_UNIT ( ) NAMED_UNIT ( * ) SI_UNIT ( .MILLI., .METRE. ) );
#64 = LOCAL_TIME ( 10, 20, 39.00000000000000000, #133 ) ;
#65 = EDGE_CURVE ( 'NONE', #153, #35, #160, .T. ) ;
#66 = CARTESIAN_POINT ( 'NONE',  ( 0.000000000000000000, 0.000000000000000000, 0.000000000000000000 ) ) ;
#67 = SHAPE_DEFINITION_REPRESENTATION ( #8, #164 ) ;
#68 = CC_DESIGN_PERSON_AND_ORGANIZATION_ASSIGNMENT ( #151, #79, ( #46 ) ) ;
#69 = LOCAL_TIME ( 10, 20, 39.00000000000000000, #101 ) ;
#70 = AXIS2_PLACEMENT_3D ( 'NONE', #12, #40, #26 ) ;
#71 = EDGE_LOOP ( 'NONE', ( #34, #154 ) ) ;
#72 = FACE_OUTER_BOUND ( 'NONE', #48, .T. ) ;
#73 = AXIS2_PLACEMENT_3D ( 'NONE', #62, #13, #143 ) ;
#74 = CARTESIAN_POINT ( 'NONE',  ( 10.00000000000000000, 1.224646799147353256E-15, 0.5000000000000000000 ) ) ;
#75 = DIRECTION ( 'NONE',  ( 0.000000000000000000, 0.000000000000000000, 1.000000000000000000 ) ) ;
#76 = FACE_OUTER_BOUND ( 'NONE', #138, .T. ) ;
#77 = CC_DESIGN_APPROVAL ( #80, ( #46 ) ) ;
#78 = DATE_AND_TIME ( #18, #64 ) ;
#79 = PERSON_AND_ORGANIZATION_ROLE ( 'design_supplier' ) ;
#80 = APPROVAL ( #104, 'UNSPECIFIED' ) ;
#81 = APPROVAL_DATE_TIME ( #31, #120 ) ;
#82 = ORIENTED_EDGE ( 'NONE', *, *, #93, .F. ) ;
#83 = AXIS2_PLACEMENT_3D ( 'NONE', #66, #175, #157 ) ;
#84 = ORIENTED_EDGE ( 'NONE', *, *, #65, .T. ) ;
#85 = PRODUCT_DEFINITION ( 'UNKNOWN', '', #46, #130 ) ;
#86 = DIRECTION ( 'NONE',  ( -0.000000000000000000, -0.000000000000000000, -1.000000000000000000 ) ) ;
#87 =( NAMED_UNIT ( * ) SI_UNIT ( $, .STERADIAN. ) SOLID_ANGLE_UNIT ( ) );
#88 = VECTOR ( 'NONE', #29, 1000.000000000000000 ) ;
#89 = MECHANICAL_CONTEXT ( 'NONE', #123, 'mechanical' ) ;
#90 = APPLICATION_PROTOCOL_DEFINITION ( 'international standard', 'config_control_design', 1994, #21 ) ;
#91 = AXIS2_PLACEMENT_3D ( 'NONE', #28, #173, #52 ) ;
#92 = ADVANCED_FACE ( 'NONE', ( #76 ), #126, .T. ) ;
#93 = EDGE_CURVE ( 'NONE', #61, #36, #3, .T. ) ;
#94 = APPROVAL_ROLE ( '' ) ;
#95 = PERSON_AND_ORGANIZATION ( #22, #6 ) ;
#96 = APPROVAL_PERSON_ORGANIZATION ( #95, #120, #94 ) ;
#97 = DIRECTION ( 'NONE',  ( 1.000000000000000000, 0.000000000000000000, -0.000000000000000000 ) ) ;
#98 = CC_DESIGN_PERSON_AND_ORGANIZATION_ASSIGNMENT ( #51, #163, ( #85 ) ) ;
#99 = EDGE_LOOP ( 'NONE', ( #139, #23, #152, #84 ) ) ;
#100 = LOCAL_TIME ( 10, 20, 39.00000000000000000, #45 ) ;
#101 = COORDINATED_UNIVERSAL_TIME_OFFSET ( 5, 0, .BEHIND. ) ;
#102 = DIRECTION ( 'NONE',  ( 1.000000000000000000, 0.000000000000000000, 0.000000000000000000 ) ) ;
#103 = APPROVAL_PERSON_ORGANIZATION ( #105, #80, #166 ) ;
#104 = APPROVAL_STATUS ( 'not_yet_approved' ) ;
#105 = PERSON_AND_ORGANIZATION ( #22, #6 ) ;
#106 = LOCAL_TIME ( 10, 20, 39.00000000000000000, #17 ) ;
#107 = DATE_TIME_ROLE ( 'creation_date' ) ;
#108 = DIRECTION ( 'NONE',  ( 0.000000000000000000, 0.000000000000000000, 1.000000000000000000 ) ) ;
#109 = CC_DESIGN_PERSON_AND_ORGANIZATION_ASSIGNMENT ( #161, #42, ( #24 ) ) ;
#110 = ORIENTED_EDGE ( 'NONE', *, *, #59, .T. ) ;
#111 = ORIENTED_EDGE ( 'NONE', *, *, #165, .F. ) ;
#112 = CARTESIAN_POINT ( 'NONE',  ( -10.00000000000000000, 0.000000000000000000, 0.5000000000000000000 ) ) ;
#113 = APPROVAL_ROLE ( '' ) ;
#114 = DATE_AND_TIME ( #39, #69 ) ;
#115 = CARTESIAN_POINT ( 'NONE',  ( -10.00000000000000000, 0.000000000000000000, 0.5000000000000000000 ) ) ;
#116 = CC_DESIGN_PERSON_AND_ORGANIZATION_ASSIGNMENT ( #56, #33, ( #124 ) ) ;
#117 = DIRECTION ( 'NONE',  ( 0.000000000000000000, 0.000000000000000000, 1.000000000000000000 ) ) ;
#118 = APPROVAL_DATE_TIME ( #135, #80 ) ;
#119 = CALENDAR_DATE ( 2022, 16, 3 ) ;
#120 = APPROVAL ( #131, 'UNSPECIFIED' ) ;
#121 = CARTESIAN_POINT ( 'NONE',  ( 0.000000000000000000, 0.000000000000000000, 0.5000000000000000000 ) ) ;
#122 = DIRECTION ( 'NONE',  ( 1.000000000000000000, 0.000000000000000000, -0.000000000000000000 ) ) ;
#123 = APPLICATION_CONTEXT ( 'configuration controlled 3d designs of mechanical parts and assemblies' ) ;
#124 = SECURITY_CLASSIFICATION ( '', '', #43 ) ;
#125 = ORIENTED_EDGE ( 'NONE', *, *, #128, .T. ) ;
#126 = CYLINDRICAL_SURFACE ( 'NONE', #91, 10.00000000000000000 ) ;
#127 = CARTESIAN_POINT ( 'NONE',  ( 10.00000000000000000, 1.224646799147353256E-15, 0.5000000000000000000 ) ) ;
#128 = EDGE_CURVE ( 'NONE', #61, #35, #49, .T. ) ;
#129 = FACE_OUTER_BOUND ( 'NONE', #99, .T. ) ;
#130 = DESIGN_CONTEXT ( 'detailed design', #21, 'design' ) ;
#131 = APPROVAL_STATUS ( 'not_yet_approved' ) ;
#132 = COORDINATED_UNIVERSAL_TIME_OFFSET ( 5, 0, .BEHIND. ) ;
#133 = COORDINATED_UNIVERSAL_TIME_OFFSET ( 5, 0, .BEHIND. ) ;
#134 = CC_DESIGN_SECURITY_CLASSIFICATION ( #124, ( #46 ) ) ;
#135 = DATE_AND_TIME ( #148, #2 ) ;
#136 = MANIFOLD_SOLID_BREP ( 'Boss-Extrude1', #53 ) ;
#137 = CC_DESIGN_PERSON_AND_ORGANIZATION_ASSIGNMENT ( #55, #162, ( #46 ) ) ;
#138 = EDGE_LOOP ( 'NONE', ( #82, #125, #110, #111 ) ) ;
#139 = ORIENTED_EDGE ( 'NONE', *, *, #128, .F. ) ;
#140 = CIRCLE ( 'NONE', #70, 10.00000000000000000 ) ;
#141 = CARTESIAN_POINT ( 'NONE',  ( 0.000000000000000000, 0.000000000000000000, 0.000000000000000000 ) ) ;
#142 = CARTESIAN_POINT ( 'NONE',  ( -10.00000000000000000, 0.000000000000000000, 0.000000000000000000 ) ) ;
#143 = DIRECTION ( 'NONE',  ( 1.000000000000000000, 0.000000000000000000, 0.000000000000000000 ) ) ;
#144 = AXIS2_PLACEMENT_3D ( 'NONE', #155, #25, #122 ) ;
#145 = PERSON_AND_ORGANIZATION ( #22, #6 ) ;
#146 = CALENDAR_DATE ( 2022, 16, 3 ) ;
#147 = ADVANCED_FACE ( 'NONE', ( #129 ), #14, .T. ) ;
#148 = CALENDAR_DATE ( 2022, 16, 3 ) ;
#149 = EDGE_CURVE ( 'NONE', #36, #61, #140, .T. ) ;
#150 = AXIS2_PLACEMENT_3D ( 'NONE', #141, #75, #102 ) ;
#151 = PERSON_AND_ORGANIZATION ( #22, #6 ) ;
#152 = ORIENTED_EDGE ( 'NONE', *, *, #165, .T. ) ;
#153 = VERTEX_POINT ( 'NONE', #142 ) ;
#154 = ORIENTED_EDGE ( 'NONE', *, *, #59, .F. ) ;
#155 = CARTESIAN_POINT ( 'NONE',  ( 0.000000000000000000, 0.000000000000000000, 0.000000000000000000 ) ) ;
#156 = CIRCLE ( 'NONE', #150, 10.00000000000000000 ) ;
#157 = DIRECTION ( 'NONE',  ( 1.000000000000000000, 0.000000000000000000, 0.000000000000000000 ) ) ;
#158 = CARTESIAN_POINT ( 'NONE',  ( 0.000000000000000000, 0.000000000000000000, 0.5000000000000000000 ) ) ;
#159 = LINE ( 'NONE', #115, #11 ) ;
#160 = CIRCLE ( 'NONE', #83, 10.00000000000000000 ) ;
#161 = PERSON_AND_ORGANIZATION ( #22, #6 ) ;
#162 = PERSON_AND_ORGANIZATION_ROLE ( 'creator' ) ;
#163 = PERSON_AND_ORGANIZATION_ROLE ( 'creator' ) ;
#164 = ADVANCED_BREP_SHAPE_REPRESENTATION ( 'Web Model 43368_20660', ( #136, #73 ), #58 ) ;
#165 = EDGE_CURVE ( 'NONE', #36, #153, #159, .T. ) ;
#166 = APPROVAL_ROLE ( '' ) ;
#167 = PLANE ( 'NONE',  #38 ) ;
#168 = PRODUCT_RELATED_PRODUCT_CATEGORY ( 'detail', '', ( #24 ) ) ;
#169 = FACE_OUTER_BOUND ( 'NONE', #71, .T. ) ;
#170 = DIRECTION ( 'NONE',  ( -1.000000000000000000, 0.000000000000000000, 0.000000000000000000 ) ) ;
#171 = APPROVAL_DATE_TIME ( #114, #1 ) ;
#172 =( NAMED_UNIT ( * ) PLANE_ANGLE_UNIT ( ) SI_UNIT ( $, .RADIAN. ) );
#173 = DIRECTION ( 'NONE',  ( -0.000000000000000000, -0.000000000000000000, -1.000000000000000000 ) ) ;
#174 = CC_DESIGN_APPROVAL ( #1, ( #85 ) ) ;
#175 = DIRECTION ( 'NONE',  ( 0.000000000000000000, 0.000000000000000000, 1.000000000000000000 ) ) ;
ENDSEC;
END-ISO-10303-21;
