ISO-10303-21;
HEADER;
FILE_DESCRIPTION (( 'STEP AP203' ),
    '1' );
FILE_NAME ('Web Model 14966_14966.step',
    '2020-07-27T18:46:19',
    ( '' ),
    ( '' ),
    'SwSTEP 2.0',
    'SolidWorks 2018',
    '' );
FILE_SCHEMA (( 'CONFIG_CONTROL_DESIGN' ));
ENDSEC;

DATA;
#1 = VERTEX_POINT ( 'NONE', #59 ) ;
#2 = CC_DESIGN_PERSON_AND_ORGANIZATION_ASSIGNMENT ( #76, #123, ( #153 ) ) ;
#3 = ORIENTED_EDGE ( 'NONE', *, *, #84, .F. ) ;
#4 = CARTESIAN_POINT ( 'NONE',  ( -2.000000000000000000, 0.0000000000000000000, 0.0000000000000000000 ) ) ;
#5 = DIRECTION ( 'NONE',  ( 0.0000000000000000000, 0.0000000000000000000, -1.000000000000000000 ) ) ;
#6 = PERSON_AND_ORGANIZATION ( #88, #37 ) ;
#7 = CC_DESIGN_PERSON_AND_ORGANIZATION_ASSIGNMENT ( #129, #174, ( #100 ) ) ;
#8 = COORDINATED_UNIVERSAL_TIME_OFFSET ( 5, 0, .BEHIND. ) ;
#9 = VERTEX_POINT ( 'NONE', #86 ) ;
#10 = COORDINATED_UNIVERSAL_TIME_OFFSET ( 5, 0, .BEHIND. ) ;
#11 = SHAPE_DEFINITION_REPRESENTATION ( #23, #120 ) ;
#12 = AXIS2_PLACEMENT_3D ( 'NONE', #171, #96, #47 ) ;
#13 = ORIENTED_EDGE ( 'NONE', *, *, #32, .F. ) ;
#14 = CIRCLE ( 'NONE', #116, 25.00000000000000000 ) ;
#15 = LOCAL_TIME ( 14, 46, 19.00000000000000000, #99 ) ;
#16 = DIRECTION ( 'NONE',  ( 1.000000000000000000, 0.0000000000000000000, 0.0000000000000000000 ) ) ;
#17 = CARTESIAN_POINT ( 'NONE',  ( -2.000000000000000000, 0.0000000000000000000, 0.0000000000000000000 ) ) ;
#18 = DIRECTION ( 'NONE',  ( -1.000000000000000000, -0.0000000000000000000, -0.0000000000000000000 ) ) ;
#19 = ORIENTED_EDGE ( 'NONE', *, *, #32, .T. ) ;
#20 = ADVANCED_FACE ( 'NONE', ( #57 ), #143, .F. ) ;
#21 = EDGE_CURVE ( 'NONE', #1, #62, #14, .T. ) ;
#22 = DATE_AND_TIME ( #75, #93 ) ;
#23 = PRODUCT_DEFINITION_SHAPE ( 'NONE', 'NONE',  #155 ) ;
#24 = AXIS2_PLACEMENT_3D ( 'NONE', #85, #109, #117 ) ;
#25 = CARTESIAN_POINT ( 'NONE',  ( 2.000000000000000000, 0.0000000000000000000, 0.0000000000000000000 ) ) ;
#26 = APPROVAL ( #82, 'UNSPECIFIED' ) ;
#27 = PERSON_AND_ORGANIZATION ( #88, #37 ) ;
#28 = COORDINATED_UNIVERSAL_TIME_OFFSET ( 5, 0, .BEHIND. ) ;
#29 = APPROVAL ( #35, 'UNSPECIFIED' ) ;
#30 = CARTESIAN_POINT ( 'NONE',  ( 2.000000000000000000, 0.0000000000000000000, 0.0000000000000000000 ) ) ;
#31 = ADVANCED_FACE ( 'NONE', ( #163 ), #90, .T. ) ;
#32 = EDGE_CURVE ( 'NONE', #9, #142, #130, .T. ) ;
#33 = MECHANICAL_CONTEXT ( 'NONE', #149, 'mechanical' ) ;
#34 = CC_DESIGN_APPROVAL ( #26, ( #100 ) ) ;
#35 = APPROVAL_STATUS ( 'not_yet_approved' ) ;
#36 = PERSON_AND_ORGANIZATION ( #88, #37 ) ;
#37 = ORGANIZATION ( 'UNSPECIFIED', 'UNSPECIFIED', '' ) ;
#38 = APPROVAL_DATE_TIME ( #103, #29 ) ;
#39 = APPROVAL_DATE_TIME ( #126, #105 ) ;
#40 = ORIENTED_EDGE ( 'NONE', *, *, #21, .F. ) ;
#41 = APPROVAL_PERSON_ORGANIZATION ( #6, #29, #127 ) ;
#42 = CYLINDRICAL_SURFACE ( 'NONE', #147, 25.00000000000000000 ) ;
#43 = FACE_OUTER_BOUND ( 'NONE', #172, .T. ) ;
#44 = CC_DESIGN_DATE_AND_TIME_ASSIGNMENT ( #74, #124, ( #100 ) ) ;
#45 = CALENDAR_DATE ( 2020, 27, 7 ) ;
#46 = CARTESIAN_POINT ( 'NONE',  ( 2.000000000000000000, 0.0000000000000000000, 0.0000000000000000000 ) ) ;
#47 = DIRECTION ( 'NONE',  ( 1.000000000000000000, 0.0000000000000000000, 0.0000000000000000000 ) ) ;
#48 = APPROVAL_ROLE ( '' ) ;
#49 = DATE_TIME_ROLE ( 'creation_date' ) ;
#50 = CC_DESIGN_SECURITY_CLASSIFICATION ( #100, ( #153 ) ) ;
#51 = VECTOR ( 'NONE', #18, 1000.000000000000000 ) ;
#52 = APPROVAL_PERSON_ORGANIZATION ( #92, #105, #48 ) ;
#53 = CC_DESIGN_DATE_AND_TIME_ASSIGNMENT ( #164, #49, ( #155 ) ) ;
#54 = VECTOR ( 'NONE', #98, 1000.000000000000000 ) ;
#55 = EDGE_CURVE ( 'NONE', #62, #1, #156, .T. ) ;
#56 = CC_DESIGN_PERSON_AND_ORGANIZATION_ASSIGNMENT ( #36, #67, ( #153 ) ) ;
#57 = FACE_OUTER_BOUND ( 'NONE', #58, .T. ) ;
#58 = EDGE_LOOP ( 'NONE', ( #3, #13 ) ) ;
#59 = CARTESIAN_POINT ( 'NONE',  ( 2.000000000000000000, 3.061616997868383043E-15, -25.00000000000000000 ) ) ;
#60 = APPROVAL_DATE_TIME ( #22, #26 ) ;
#61 = CARTESIAN_POINT ( 'NONE',  ( 2.000000000000000000, 0.0000000000000000000, 25.00000000000000000 ) ) ;
#62 = VERTEX_POINT ( 'NONE', #61 ) ;
#63 =( NAMED_UNIT ( * ) SI_UNIT ( $, .STERADIAN. ) SOLID_ANGLE_UNIT ( ) );
#64 = PLANE ( 'NONE',  #131 ) ;
#65 = DIRECTION ( 'NONE',  ( 0.0000000000000000000, 0.0000000000000000000, 1.000000000000000000 ) ) ;
#66 = CARTESIAN_POINT ( 'NONE',  ( 2.000000000000000000, 0.0000000000000000000, 25.00000000000000000 ) ) ;
#67 = PERSON_AND_ORGANIZATION_ROLE ( 'creator' ) ;
#68 = ADVANCED_FACE ( 'NONE', ( #80 ), #64, .T. ) ;
#69 = SECURITY_CLASSIFICATION_LEVEL ( 'unclassified' ) ;
#70 = PERSON_AND_ORGANIZATION ( #88, #37 ) ;
#71 = ORIENTED_EDGE ( 'NONE', *, *, #55, .F. ) ;
#72 = CALENDAR_DATE ( 2020, 27, 7 ) ;
#73 = EDGE_CURVE ( 'NONE', #62, #142, #167, .T. ) ;
#74 = DATE_AND_TIME ( #137, #106 ) ;
#75 = CALENDAR_DATE ( 2020, 27, 7 ) ;
#76 = PERSON_AND_ORGANIZATION ( #88, #37 ) ;
#77 = APPLICATION_PROTOCOL_DEFINITION ( 'international standard', 'config_control_design', 1994, #149 ) ;
#78 = DIRECTION ( 'NONE',  ( 0.0000000000000000000, 0.0000000000000000000, -1.000000000000000000 ) ) ;
#79 = ADVANCED_FACE ( 'NONE', ( #43 ), #42, .T. ) ;
#80 = FACE_OUTER_BOUND ( 'NONE', #97, .T. ) ;
#81 = APPLICATION_CONTEXT ( 'configuration controlled 3d designs of mechanical parts and assemblies' ) ;
#82 = APPROVAL_STATUS ( 'not_yet_approved' ) ;
#83 = MANIFOLD_SOLID_BREP ( 'Boss-Extrude1', #87 ) ;
#84 = EDGE_CURVE ( 'NONE', #142, #9, #158, .T. ) ;
#85 = CARTESIAN_POINT ( 'NONE',  ( -2.000000000000000000, 0.0000000000000000000, 0.0000000000000000000 ) ) ;
#86 = CARTESIAN_POINT ( 'NONE',  ( -2.000000000000000000, 3.061616997868383043E-15, -25.00000000000000000 ) ) ;
#87 = CLOSED_SHELL ( 'NONE', ( #31, #79, #68, #20 ) ) ;
#88 = PERSON ( 'UNSPECIFIED', 'UNSPECIFIED', 'UNSPECIFIED', ('UNSPECIFIED'), ('UNSPECIFIED'), ('UNSPECIFIED') ) ;
#89 = ORIENTED_EDGE ( 'NONE', *, *, #73, .T. ) ;
#90 = CYLINDRICAL_SURFACE ( 'NONE', #101, 25.00000000000000000 ) ;
#91 = AXIS2_PLACEMENT_3D ( 'NONE', #30, #16, #78 ) ;
#92 = PERSON_AND_ORGANIZATION ( #88, #37 ) ;
#93 = LOCAL_TIME ( 14, 46, 19.00000000000000000, #8 ) ;
#94 = CARTESIAN_POINT ( 'NONE',  ( 2.000000000000000000, 0.0000000000000000000, 0.0000000000000000000 ) ) ;
#95 = DIRECTION ( 'NONE',  ( 0.0000000000000000000, 0.0000000000000000000, -1.000000000000000000 ) ) ;
#96 = DIRECTION ( 'NONE',  ( 0.0000000000000000000, 0.0000000000000000000, 1.000000000000000000 ) ) ;
#97 = EDGE_LOOP ( 'NONE', ( #125, #128 ) ) ;
#98 = DIRECTION ( 'NONE',  ( -1.000000000000000000, -0.0000000000000000000, -0.0000000000000000000 ) ) ;
#99 = COORDINATED_UNIVERSAL_TIME_OFFSET ( 5, 0, .BEHIND. ) ;
#100 = SECURITY_CLASSIFICATION ( '', '', #69 ) ;
#101 = AXIS2_PLACEMENT_3D ( 'NONE', #108, #118, #144 ) ;
#102 = EDGE_LOOP ( 'NONE', ( #40, #107, #19, #110 ) ) ;
#103 = DATE_AND_TIME ( #45, #166 ) ;
#104 = PERSON_AND_ORGANIZATION_ROLE ( 'design_owner' ) ;
#105 = APPROVAL ( #140, 'UNSPECIFIED' ) ;
#106 = LOCAL_TIME ( 14, 46, 19.00000000000000000, #28 ) ;
#107 = ORIENTED_EDGE ( 'NONE', *, *, #133, .T. ) ;
#108 = CARTESIAN_POINT ( 'NONE',  ( 2.000000000000000000, 0.0000000000000000000, 0.0000000000000000000 ) ) ;
#109 = DIRECTION ( 'NONE',  ( 1.000000000000000000, 0.0000000000000000000, 0.0000000000000000000 ) ) ;
#110 = ORIENTED_EDGE ( 'NONE', *, *, #73, .F. ) ;
#111 = DIRECTION ( 'NONE',  ( 1.000000000000000000, 0.0000000000000000000, 0.0000000000000000000 ) ) ;
#112 = DIRECTION ( 'NONE',  ( -1.000000000000000000, -0.0000000000000000000, -0.0000000000000000000 ) ) ;
#113 = AXIS2_PLACEMENT_3D ( 'NONE', #4, #170, #150 ) ;
#114 = LOCAL_TIME ( 14, 46, 19.00000000000000000, #10 ) ;
#115 = CC_DESIGN_PERSON_AND_ORGANIZATION_ASSIGNMENT ( #27, #173, ( #155 ) ) ;
#116 = AXIS2_PLACEMENT_3D ( 'NONE', #25, #145, #132 ) ;
#117 = DIRECTION ( 'NONE',  ( 0.0000000000000000000, 0.0000000000000000000, -1.000000000000000000 ) ) ;
#118 = DIRECTION ( 'NONE',  ( -1.000000000000000000, -0.0000000000000000000, -0.0000000000000000000 ) ) ;
#119 = AXIS2_PLACEMENT_3D ( 'NONE', #17, #135, #95 ) ;
#120 = ADVANCED_BREP_SHAPE_REPRESENTATION ( 'Web Model 14966_14966', ( #83, #12 ), #139 ) ;
#121 = APPLICATION_PROTOCOL_DEFINITION ( 'international standard', 'config_control_design', 1994, #81 ) ;
#122 = CC_DESIGN_APPROVAL ( #29, ( #155 ) ) ;
#123 = PERSON_AND_ORGANIZATION_ROLE ( 'design_supplier' ) ;
#124 = DATE_TIME_ROLE ( 'classification_date' ) ;
#125 = ORIENTED_EDGE ( 'NONE', *, *, #55, .T. ) ;
#126 = DATE_AND_TIME ( #72, #114 ) ;
#127 = APPROVAL_ROLE ( '' ) ;
#128 = ORIENTED_EDGE ( 'NONE', *, *, #21, .T. ) ;
#129 = PERSON_AND_ORGANIZATION ( #88, #37 ) ;
#130 = CIRCLE ( 'NONE', #113, 25.00000000000000000 ) ;
#131 = AXIS2_PLACEMENT_3D ( 'NONE', #46, #111, #5 ) ;
#132 = DIRECTION ( 'NONE',  ( 0.0000000000000000000, 0.0000000000000000000, -1.000000000000000000 ) ) ;
#133 = EDGE_CURVE ( 'NONE', #1, #9, #162, .T. ) ;
#134 = ORIENTED_EDGE ( 'NONE', *, *, #133, .F. ) ;
#135 = DIRECTION ( 'NONE',  ( 1.000000000000000000, 0.0000000000000000000, 0.0000000000000000000 ) ) ;
#136 =( LENGTH_UNIT ( ) NAMED_UNIT ( * ) SI_UNIT ( .MILLI., .METRE. ) );
#137 = CALENDAR_DATE ( 2020, 27, 7 ) ;
#138 = DESIGN_CONTEXT ( 'detailed design', #81, 'design' ) ;
#139 =( GEOMETRIC_REPRESENTATION_CONTEXT ( 3 ) GLOBAL_UNCERTAINTY_ASSIGNED_CONTEXT ( ( #165 ) ) GLOBAL_UNIT_ASSIGNED_CONTEXT ( ( #136, #161, #63 ) ) REPRESENTATION_CONTEXT ( 'NONE', 'WORKASPACE' ) );
#140 = APPROVAL_STATUS ( 'not_yet_approved' ) ;
#141 = PERSON_AND_ORGANIZATION ( #88, #37 ) ;
#142 = VERTEX_POINT ( 'NONE', #159 ) ;
#143 = PLANE ( 'NONE',  #24 ) ;
#144 = DIRECTION ( 'NONE',  ( 0.0000000000000000000, 0.0000000000000000000, 1.000000000000000000 ) ) ;
#145 = DIRECTION ( 'NONE',  ( 1.000000000000000000, 0.0000000000000000000, 0.0000000000000000000 ) ) ;
#146 = CC_DESIGN_PERSON_AND_ORGANIZATION_ASSIGNMENT ( #70, #104, ( #154 ) ) ;
#147 = AXIS2_PLACEMENT_3D ( 'NONE', #94, #112, #65 ) ;
#148 = COORDINATED_UNIVERSAL_TIME_OFFSET ( 5, 0, .BEHIND. ) ;
#149 = APPLICATION_CONTEXT ( 'configuration controlled 3d designs of mechanical parts and assemblies' ) ;
#150 = DIRECTION ( 'NONE',  ( 0.0000000000000000000, 0.0000000000000000000, -1.000000000000000000 ) ) ;
#151 = PRODUCT_RELATED_PRODUCT_CATEGORY ( 'detail', '', ( #154 ) ) ;
#152 = APPROVAL_ROLE ( '' ) ;
#153 = PRODUCT_DEFINITION_FORMATION_WITH_SPECIFIED_SOURCE ( 'ANY', '', #154, .NOT_KNOWN. ) ;
#154 = PRODUCT ( 'Web Model 14966_14966', 'Web Model 14966_14966', '', ( #33 ) ) ;
#155 = PRODUCT_DEFINITION ( 'UNKNOWN', '', #153, #138 ) ;
#156 = CIRCLE ( 'NONE', #91, 25.00000000000000000 ) ;
#157 = CARTESIAN_POINT ( 'NONE',  ( 2.000000000000000000, 3.061616997868383043E-15, -25.00000000000000000 ) ) ;
#158 = CIRCLE ( 'NONE', #119, 25.00000000000000000 ) ;
#159 = CARTESIAN_POINT ( 'NONE',  ( -2.000000000000000000, 0.0000000000000000000, 25.00000000000000000 ) ) ;
#160 = CALENDAR_DATE ( 2020, 27, 7 ) ;
#161 =( NAMED_UNIT ( * ) PLANE_ANGLE_UNIT ( ) SI_UNIT ( $, .RADIAN. ) );
#162 = LINE ( 'NONE', #157, #51 ) ;
#163 = FACE_OUTER_BOUND ( 'NONE', #102, .T. ) ;
#164 = DATE_AND_TIME ( #160, #15 ) ;
#165 = UNCERTAINTY_MEASURE_WITH_UNIT (LENGTH_MEASURE( 1.000000000000000082E-05 ), #136, 'distance_accuracy_value', 'NONE');
#166 = LOCAL_TIME ( 14, 46, 19.00000000000000000, #148 ) ;
#167 = LINE ( 'NONE', #66, #54 ) ;
#168 = ORIENTED_EDGE ( 'NONE', *, *, #84, .T. ) ;
#169 = CC_DESIGN_APPROVAL ( #105, ( #153 ) ) ;
#170 = DIRECTION ( 'NONE',  ( 1.000000000000000000, 0.0000000000000000000, 0.0000000000000000000 ) ) ;
#171 = CARTESIAN_POINT ( 'NONE',  ( 0.0000000000000000000, 0.0000000000000000000, 0.0000000000000000000 ) ) ;
#172 = EDGE_LOOP ( 'NONE', ( #134, #71, #89, #168 ) ) ;
#173 = PERSON_AND_ORGANIZATION_ROLE ( 'creator' ) ;
#174 = PERSON_AND_ORGANIZATION_ROLE ( 'classification_officer' ) ;
#175 = APPROVAL_PERSON_ORGANIZATION ( #141, #26, #152 ) ;
ENDSEC;
END-ISO-10303-21;
