ISO-10303-21;
HEADER;
FILE_DESCRIPTION (( 'STEP AP203' ),
    '1' );
FILE_NAME ('Web Model 85291_85295.step',
    '2017-05-01T20:07:52',
    ( '' ),
    ( '' ),
    'SwSTEP 2.0',
    'SolidWorks 2016',
    '' );
FILE_SCHEMA (( 'CONFIG_CONTROL_DESIGN' ));
ENDSEC;

DATA;
#1 = ORIENTED_EDGE ( 'NONE', *, *, #218, .F. ) ;
#2 = VECTOR ( 'NONE', #47, 1000.000000000000000 ) ;
#3 = LINE ( 'NONE', #72, #17 ) ;
#4 = PLANE ( 'NONE',  #105 ) ;
#5 = LINE ( 'NONE', #146, #20 ) ;
#6 = DIRECTION ( 'NONE',  ( 1.387778780781445700E-016, -1.000000000000000000, 0.0000000000000000000 ) ) ;
#7 = CALENDAR_DATE ( 2017, 1, 5 ) ;
#8 = APPROVAL_ROLE ( '' ) ;
#9 = EDGE_LOOP ( 'NONE', ( #152, #1, #201, #64 ) ) ;
#10 = DATE_AND_TIME ( #108, #189 ) ;
#11 = CALENDAR_DATE ( 2017, 1, 5 ) ;
#12 = ORIENTED_EDGE ( 'NONE', *, *, #181, .T. ) ;
#13 = CARTESIAN_POINT ( 'NONE',  ( 0.0000000000000000000, 0.0000000000000000000, 1.000000000000000000 ) ) ;
#14 = AXIS2_PLACEMENT_3D ( 'NONE', #133, #193, #197 ) ;
#15 = VERTEX_POINT ( 'NONE', #16 ) ;
#16 = CARTESIAN_POINT ( 'NONE',  ( 12.50000000000000200, -12.50000000000000200, 1.000000000000000000 ) ) ;
#17 = VECTOR ( 'NONE', #56, 1000.000000000000000 ) ;
#18 = CARTESIAN_POINT ( 'NONE',  ( -12.50000000000000200, 12.49999999999999600, 1.000000000000000000 ) ) ;
#19 = EDGE_CURVE ( 'NONE', #43, #211, #185, .T. ) ;
#20 = VECTOR ( 'NONE', #202, 1000.000000000000000 ) ;
#21 = DIRECTION ( 'NONE',  ( -1.000000000000000000, -0.0000000000000000000, -0.0000000000000000000 ) ) ;
#22 = PRODUCT_RELATED_PRODUCT_CATEGORY ( 'detail', '', ( #209 ) ) ;
#23 = EDGE_LOOP ( 'NONE', ( #188, #235, #166, #73 ) ) ;
#24 = CARTESIAN_POINT ( 'NONE',  ( 12.50000000000000200, -12.50000000000000200, -1.000000000000000000 ) ) ;
#25 = COORDINATED_UNIVERSAL_TIME_OFFSET ( 5, 0, .BEHIND. ) ;
#26 = CC_DESIGN_SECURITY_CLASSIFICATION ( #68, ( #111 ) ) ;
#27 = ORIENTED_EDGE ( 'NONE', *, *, #233, .T. ) ;
#28 = LOCAL_TIME ( 16, 7, 52.00000000000000000, #132 ) ;
#29 = EDGE_LOOP ( 'NONE', ( #27, #31, #82, #231 ) ) ;
#30 = CC_DESIGN_APPROVAL ( #36, ( #68 ) ) ;
#31 = ORIENTED_EDGE ( 'NONE', *, *, #175, .F. ) ;
#32 = PLANE ( 'NONE',  #137 ) ;
#33 = VECTOR ( 'NONE', #6, 1000.000000000000000 ) ;
#34 = AXIS2_PLACEMENT_3D ( 'NONE', #93, #126, #129 ) ;
#35 = LINE ( 'NONE', #104, #171 ) ;
#36 = APPROVAL ( #198, 'UNSPECIFIED' ) ;
#37 = CARTESIAN_POINT ( 'NONE',  ( 12.49999999999999800, 12.49999999999999600, 1.000000000000000000 ) ) ;
#38 = CARTESIAN_POINT ( 'NONE',  ( -12.50000000000000200, 12.49999999999999600, 1.000000000000000000 ) ) ;
#39 = FACE_OUTER_BOUND ( 'NONE', #54, .T. ) ;
#40 = APPROVAL_PERSON_ORGANIZATION ( #140, #36, #230 ) ;
#41 = DIRECTION ( 'NONE',  ( 1.000000000000000000, 0.0000000000000000000, 0.0000000000000000000 ) ) ;
#42 = AXIS2_PLACEMENT_3D ( 'NONE', #76, #204, #41 ) ;
#43 = VERTEX_POINT ( 'NONE', #121 ) ;
#44 = APPLICATION_CONTEXT ( 'configuration controlled 3d designs of mechanical parts and assemblies' ) ;
#45 = COORDINATED_UNIVERSAL_TIME_OFFSET ( 5, 0, .BEHIND. ) ;
#46 = CARTESIAN_POINT ( 'NONE',  ( -12.50000000000000200, 12.49999999999999600, -1.000000000000000000 ) ) ;
#47 = DIRECTION ( 'NONE',  ( 1.387778780781445700E-016, -1.000000000000000000, 0.0000000000000000000 ) ) ;
#48 = ORIENTED_EDGE ( 'NONE', *, *, #206, .F. ) ;
#49 = APPROVAL_PERSON_ORGANIZATION ( #148, #135, #81 ) ;
#50 = CARTESIAN_POINT ( 'NONE',  ( 12.49999999999999800, 12.49999999999999600, 1.000000000000000000 ) ) ;
#51 = CARTESIAN_POINT ( 'NONE',  ( 0.0000000000000000000, 0.0000000000000000000, 0.0000000000000000000 ) ) ;
#52 = ORIENTED_EDGE ( 'NONE', *, *, #181, .F. ) ;
#53 = CC_DESIGN_DATE_AND_TIME_ASSIGNMENT ( #229, #95, ( #68 ) ) ;
#54 = EDGE_LOOP ( 'NONE', ( #65, #214, #52, #127 ) ) ;
#55 = SHAPE_DEFINITION_REPRESENTATION ( #195, #118 ) ;
#56 = DIRECTION ( 'NONE',  ( -1.387778780781445700E-016, 1.000000000000000000, -0.0000000000000000000 ) ) ;
#57 = DIRECTION ( 'NONE',  ( -0.0000000000000000000, -0.0000000000000000000, -1.000000000000000000 ) ) ;
#58 = LINE ( 'NONE', #110, #2 ) ;
#59 = CC_DESIGN_PERSON_AND_ORGANIZATION_ASSIGNMENT ( #128, #112, ( #68 ) ) ;
#60 = FACE_OUTER_BOUND ( 'NONE', #9, .T. ) ;
#61 = PERSON_AND_ORGANIZATION_ROLE ( 'creator' ) ;
#62 = APPROVAL_DATE_TIME ( #159, #36 ) ;
#63 = APPLICATION_CONTEXT ( 'configuration controlled 3d designs of mechanical parts and assemblies' ) ;
#64 = ORIENTED_EDGE ( 'NONE', *, *, #175, .T. ) ;
#65 = ORIENTED_EDGE ( 'NONE', *, *, #199, .T. ) ;
#66 = PERSON_AND_ORGANIZATION ( #227, #94 ) ;
#67 = DIRECTION ( 'NONE',  ( -1.387778780781445700E-016, 1.000000000000000000, -0.0000000000000000000 ) ) ;
#68 = SECURITY_CLASSIFICATION ( '', '', #168 ) ;
#69 = ADVANCED_FACE ( 'NONE', ( #39 ), #114, .F. ) ;
#70 = ORIENTED_EDGE ( 'NONE', *, *, #199, .F. ) ;
#71 = APPROVAL_DATE_TIME ( #167, #135 ) ;
#72 = CARTESIAN_POINT ( 'NONE',  ( 12.49999999999999800, 12.49999999999999600, -1.000000000000000000 ) ) ;
#73 = ORIENTED_EDGE ( 'NONE', *, *, #218, .T. ) ;
#74 = CC_DESIGN_PERSON_AND_ORGANIZATION_ASSIGNMENT ( #213, #155, ( #111 ) ) ;
#75 = VECTOR ( 'NONE', #57, 1000.000000000000000 ) ;
#76 = CARTESIAN_POINT ( 'NONE',  ( 0.0000000000000000000, 0.0000000000000000000, -1.000000000000000000 ) ) ;
#77 = LINE ( 'NONE', #150, #33 ) ;
#78 = APPLICATION_PROTOCOL_DEFINITION ( 'international standard', 'config_control_design', 1994, #44 ) ;
#79 = LINE ( 'NONE', #46, #157 ) ;
#80 = CC_DESIGN_PERSON_AND_ORGANIZATION_ASSIGNMENT ( #66, #179, ( #111 ) ) ;
#81 = APPROVAL_ROLE ( '' ) ;
#82 = ORIENTED_EDGE ( 'NONE', *, *, #223, .F. ) ;
#83 = CALENDAR_DATE ( 2017, 1, 5 ) ;
#84 = DIRECTION ( 'NONE',  ( 1.000000000000000000, 1.387778780781445700E-016, -0.0000000000000000000 ) ) ;
#85 = DIRECTION ( 'NONE',  ( 1.000000000000000000, 0.0000000000000000000, 0.0000000000000000000 ) ) ;
#86 = CC_DESIGN_APPROVAL ( #96, ( #111 ) ) ;
#87 = VERTEX_POINT ( 'NONE', #122 ) ;
#88 = DATE_AND_TIME ( #177, #28 ) ;
#89 = DIRECTION ( 'NONE',  ( -1.000000000000000000, -1.387778780781445700E-016, 0.0000000000000000000 ) ) ;
#90 =( LENGTH_UNIT ( ) NAMED_UNIT ( * ) SI_UNIT ( .MILLI., .METRE. ) );
#91 = AXIS2_PLACEMENT_3D ( 'NONE', #18, #84, #178 ) ;
#92 = CARTESIAN_POINT ( 'NONE',  ( -12.50000000000000200, 12.49999999999999600, -1.000000000000000000 ) ) ;
#93 = CARTESIAN_POINT ( 'NONE',  ( -12.50000000000000200, 12.49999999999999600, 1.000000000000000000 ) ) ;
#94 = ORGANIZATION ( 'UNSPECIFIED', 'UNSPECIFIED', '' ) ;
#95 = DATE_TIME_ROLE ( 'classification_date' ) ;
#96 = APPROVAL ( #103, 'UNSPECIFIED' ) ;
#97 = DESIGN_CONTEXT ( 'detailed design', #44, 'design' ) ;
#98 = FACE_OUTER_BOUND ( 'NONE', #219, .T. ) ;
#99 = CARTESIAN_POINT ( 'NONE',  ( 12.49999999999999800, 12.49999999999999600, 1.000000000000000000 ) ) ;
#100 = VECTOR ( 'NONE', #225, 1000.000000000000000 ) ;
#101 = VECTOR ( 'NONE', #221, 1000.000000000000000 ) ;
#102 = LOCAL_TIME ( 16, 7, 52.00000000000000000, #186 ) ;
#103 = APPROVAL_STATUS ( 'not_yet_approved' ) ;
#104 = CARTESIAN_POINT ( 'NONE',  ( 12.49999999999999800, 12.49999999999999600, 1.000000000000000000 ) ) ;
#105 = AXIS2_PLACEMENT_3D ( 'NONE', #37, #89, #212 ) ;
#106 = CARTESIAN_POINT ( 'NONE',  ( -12.50000000000000200, 12.49999999999999600, 1.000000000000000000 ) ) ;
#107 = EDGE_LOOP ( 'NONE', ( #48, #210, #131, #70 ) ) ;
#108 = CALENDAR_DATE ( 2017, 1, 5 ) ;
#109 = APPROVAL_STATUS ( 'not_yet_approved' ) ;
#110 = CARTESIAN_POINT ( 'NONE',  ( -12.50000000000000200, 12.49999999999999600, -1.000000000000000000 ) ) ;
#111 = PRODUCT_DEFINITION_FORMATION_WITH_SPECIFIED_SOURCE ( 'ANY', '', #209, .NOT_KNOWN. ) ;
#112 = PERSON_AND_ORGANIZATION_ROLE ( 'classification_officer' ) ;
#113 = LOCAL_TIME ( 16, 7, 52.00000000000000000, #194 ) ;
#114 = PLANE ( 'NONE',  #34 ) ;
#115 = DIRECTION ( 'NONE',  ( -1.000000000000000000, -0.0000000000000000000, -0.0000000000000000000 ) ) ;
#116 = AXIS2_PLACEMENT_3D ( 'NONE', #51, #237, #123 ) ;
#117 = CARTESIAN_POINT ( 'NONE',  ( -12.49999999999999800, -12.50000000000000200, -1.000000000000000000 ) ) ;
#118 = ADVANCED_BREP_SHAPE_REPRESENTATION ( 'Web Model 85291_85295', ( #196, #116 ), #119 ) ;
#119 =( GEOMETRIC_REPRESENTATION_CONTEXT ( 3 ) GLOBAL_UNCERTAINTY_ASSIGNED_CONTEXT ( ( #220 ) ) GLOBAL_UNIT_ASSIGNED_CONTEXT ( ( #90, #217, #180 ) ) REPRESENTATION_CONTEXT ( 'NONE', 'WORKASPACE' ) );
#120 = VECTOR ( 'NONE', #151, 1000.000000000000000 ) ;
#121 = CARTESIAN_POINT ( 'NONE',  ( -12.49999999999999800, -12.50000000000000200, -1.000000000000000000 ) ) ;
#122 = CARTESIAN_POINT ( 'NONE',  ( -12.49999999999999800, -12.50000000000000200, 1.000000000000000000 ) ) ;
#123 = DIRECTION ( 'NONE',  ( 1.000000000000000000, 0.0000000000000000000, 0.0000000000000000000 ) ) ;
#124 = CC_DESIGN_APPROVAL ( #135, ( #153 ) ) ;
#125 = FACE_OUTER_BOUND ( 'NONE', #29, .T. ) ;
#126 = DIRECTION ( 'NONE',  ( 0.0000000000000000000, -1.000000000000000000, 0.0000000000000000000 ) ) ;
#127 = ORIENTED_EDGE ( 'NONE', *, *, #203, .T. ) ;
#128 = PERSON_AND_ORGANIZATION ( #227, #94 ) ;
#129 = DIRECTION ( 'NONE',  ( 0.0000000000000000000, -0.0000000000000000000, -1.000000000000000000 ) ) ;
#130 = PLANE ( 'NONE',  #91 ) ;
#131 = ORIENTED_EDGE ( 'NONE', *, *, #233, .F. ) ;
#132 = COORDINATED_UNIVERSAL_TIME_OFFSET ( 5, 0, .BEHIND. ) ;
#133 = CARTESIAN_POINT ( 'NONE',  ( -12.49999999999999800, -12.50000000000000200, 1.000000000000000000 ) ) ;
#134 = CC_DESIGN_PERSON_AND_ORGANIZATION_ASSIGNMENT ( #216, #61, ( #153 ) ) ;
#135 = APPROVAL ( #109, 'UNSPECIFIED' ) ;
#136 = PLANE ( 'NONE',  #42 ) ;
#137 = AXIS2_PLACEMENT_3D ( 'NONE', #13, #192, #85 ) ;
#138 = LINE ( 'NONE', #154, #100 ) ;
#139 = FACE_OUTER_BOUND ( 'NONE', #107, .T. ) ;
#140 = PERSON_AND_ORGANIZATION ( #227, #94 ) ;
#141 = CLOSED_SHELL ( 'NONE', ( #215, #69, #183, #165, #234, #145 ) ) ;
#142 = VERTEX_POINT ( 'NONE', #99 ) ;
#143 = APPROVAL_PERSON_ORGANIZATION ( #232, #96, #8 ) ;
#144 = CARTESIAN_POINT ( 'NONE',  ( 12.49999999999999800, 12.49999999999999600, -1.000000000000000000 ) ) ;
#145 = ADVANCED_FACE ( 'NONE', ( #139 ), #136, .F. ) ;
#146 = CARTESIAN_POINT ( 'NONE',  ( -12.49999999999999800, -12.50000000000000200, 1.000000000000000000 ) ) ;
#147 = ORIENTED_EDGE ( 'NONE', *, *, #184, .T. ) ;
#148 = PERSON_AND_ORGANIZATION ( #227, #94 ) ;
#149 = DIRECTION ( 'NONE',  ( -0.0000000000000000000, -0.0000000000000000000, -1.000000000000000000 ) ) ;
#150 = CARTESIAN_POINT ( 'NONE',  ( -12.50000000000000200, 12.49999999999999600, 1.000000000000000000 ) ) ;
#151 = DIRECTION ( 'NONE',  ( -0.0000000000000000000, -0.0000000000000000000, -1.000000000000000000 ) ) ;
#152 = ORIENTED_EDGE ( 'NONE', *, *, #19, .T. ) ;
#153 = PRODUCT_DEFINITION ( 'UNKNOWN', '', #111, #97 ) ;
#154 = CARTESIAN_POINT ( 'NONE',  ( -12.49999999999999800, -12.50000000000000200, 1.000000000000000000 ) ) ;
#155 = PERSON_AND_ORGANIZATION_ROLE ( 'design_supplier' ) ;
#156 = CC_DESIGN_DATE_AND_TIME_ASSIGNMENT ( #88, #226, ( #153 ) ) ;
#157 = VECTOR ( 'NONE', #21, 1000.000000000000000 ) ;
#158 = LINE ( 'NONE', #200, #75 ) ;
#159 = DATE_AND_TIME ( #7, #102 ) ;
#160 = CC_DESIGN_PERSON_AND_ORGANIZATION_ASSIGNMENT ( #236, #190, ( #209 ) ) ;
#161 = VERTEX_POINT ( 'NONE', #106 ) ;
#162 = ORIENTED_EDGE ( 'NONE', *, *, #223, .T. ) ;
#163 = APPROVAL_DATE_TIME ( #10, #96 ) ;
#164 = PLANE ( 'NONE',  #14 ) ;
#165 = ADVANCED_FACE ( 'NONE', ( #60 ), #164, .F. ) ;
#166 = ORIENTED_EDGE ( 'NONE', *, *, #184, .F. ) ;
#167 = DATE_AND_TIME ( #11, #113 ) ;
#168 = SECURITY_CLASSIFICATION_LEVEL ( 'unclassified' ) ;
#169 = EDGE_CURVE ( 'NONE', #161, #228, #158, .T. ) ;
#170 = FACE_OUTER_BOUND ( 'NONE', #23, .T. ) ;
#171 = VECTOR ( 'NONE', #67, 1000.000000000000000 ) ;
#172 = APPLICATION_PROTOCOL_DEFINITION ( 'international standard', 'config_control_design', 1994, #63 ) ;
#173 = ORIENTED_EDGE ( 'NONE', *, *, #191, .T. ) ;
#174 = LOCAL_TIME ( 16, 7, 52.00000000000000000, #25 ) ;
#175 = EDGE_CURVE ( 'NONE', #87, #43, #5, .T. ) ;
#176 = VERTEX_POINT ( 'NONE', #144 ) ;
#177 = CALENDAR_DATE ( 2017, 1, 5 ) ;
#178 = DIRECTION ( 'NONE',  ( -1.387778780781445700E-016, 1.000000000000000000, 0.0000000000000000000 ) ) ;
#179 = PERSON_AND_ORGANIZATION_ROLE ( 'creator' ) ;
#180 =( NAMED_UNIT ( * ) SI_UNIT ( $, .STERADIAN. ) SOLID_ANGLE_UNIT ( ) );
#181 = EDGE_CURVE ( 'NONE', #142, #161, #208, .T. ) ;
#182 = LINE ( 'NONE', #50, #205 ) ;
#183 = ADVANCED_FACE ( 'NONE', ( #125 ), #130, .F. ) ;
#184 = EDGE_CURVE ( 'NONE', #15, #142, #35, .T. ) ;
#185 = LINE ( 'NONE', #117, #101 ) ;
#186 = COORDINATED_UNIVERSAL_TIME_OFFSET ( 5, 0, .BEHIND. ) ;
#187 = MECHANICAL_CONTEXT ( 'NONE', #63, 'mechanical' ) ;
#188 = ORIENTED_EDGE ( 'NONE', *, *, #206, .T. ) ;
#189 = LOCAL_TIME ( 16, 7, 52.00000000000000000, #45 ) ;
#190 = PERSON_AND_ORGANIZATION_ROLE ( 'design_owner' ) ;
#191 = EDGE_CURVE ( 'NONE', #87, #15, #138, .T. ) ;
#192 = DIRECTION ( 'NONE',  ( -0.0000000000000000000, 0.0000000000000000000, 1.000000000000000000 ) ) ;
#193 = DIRECTION ( 'NONE',  ( 0.0000000000000000000, 1.000000000000000000, 0.0000000000000000000 ) ) ;
#194 = COORDINATED_UNIVERSAL_TIME_OFFSET ( 5, 0, .BEHIND. ) ;
#195 = PRODUCT_DEFINITION_SHAPE ( 'NONE', 'NONE',  #153 ) ;
#196 = MANIFOLD_SOLID_BREP ( 'Boss-Extrude1', #141 ) ;
#197 = DIRECTION ( 'NONE',  ( 0.0000000000000000000, -0.0000000000000000000, 1.000000000000000000 ) ) ;
#198 = APPROVAL_STATUS ( 'not_yet_approved' ) ;
#199 = EDGE_CURVE ( 'NONE', #176, #228, #79, .T. ) ;
#200 = CARTESIAN_POINT ( 'NONE',  ( -12.50000000000000200, 12.49999999999999600, 1.000000000000000000 ) ) ;
#201 = ORIENTED_EDGE ( 'NONE', *, *, #191, .F. ) ;
#202 = DIRECTION ( 'NONE',  ( -0.0000000000000000000, -0.0000000000000000000, -1.000000000000000000 ) ) ;
#203 = EDGE_CURVE ( 'NONE', #142, #176, #182, .T. ) ;
#204 = DIRECTION ( 'NONE',  ( -0.0000000000000000000, 0.0000000000000000000, 1.000000000000000000 ) ) ;
#205 = VECTOR ( 'NONE', #149, 1000.000000000000000 ) ;
#206 = EDGE_CURVE ( 'NONE', #211, #176, #3, .T. ) ;
#207 = CARTESIAN_POINT ( 'NONE',  ( 12.50000000000000200, -12.50000000000000200, 1.000000000000000000 ) ) ;
#208 = LINE ( 'NONE', #38, #224 ) ;
#209 = PRODUCT ( 'Web Model 85291_85295', 'Web Model 85291_85295', '', ( #187 ) ) ;
#210 = ORIENTED_EDGE ( 'NONE', *, *, #19, .F. ) ;
#211 = VERTEX_POINT ( 'NONE', #24 ) ;
#212 = DIRECTION ( 'NONE',  ( 1.387778780781445700E-016, -1.000000000000000000, 0.0000000000000000000 ) ) ;
#213 = PERSON_AND_ORGANIZATION ( #227, #94 ) ;
#214 = ORIENTED_EDGE ( 'NONE', *, *, #169, .F. ) ;
#215 = ADVANCED_FACE ( 'NONE', ( #170 ), #4, .F. ) ;
#216 = PERSON_AND_ORGANIZATION ( #227, #94 ) ;
#217 =( NAMED_UNIT ( * ) PLANE_ANGLE_UNIT ( ) SI_UNIT ( $, .RADIAN. ) );
#218 = EDGE_CURVE ( 'NONE', #15, #211, #222, .T. ) ;
#219 = EDGE_LOOP ( 'NONE', ( #147, #12, #162, #173 ) ) ;
#220 = UNCERTAINTY_MEASURE_WITH_UNIT (LENGTH_MEASURE( 1.000000000000000100E-005 ), #90, 'distance_accuracy_value', 'NONE');
#221 = DIRECTION ( 'NONE',  ( 1.000000000000000000, 0.0000000000000000000, 0.0000000000000000000 ) ) ;
#222 = LINE ( 'NONE', #207, #120 ) ;
#223 = EDGE_CURVE ( 'NONE', #161, #87, #77, .T. ) ;
#224 = VECTOR ( 'NONE', #115, 1000.000000000000000 ) ;
#225 = DIRECTION ( 'NONE',  ( 1.000000000000000000, 0.0000000000000000000, 0.0000000000000000000 ) ) ;
#226 = DATE_TIME_ROLE ( 'creation_date' ) ;
#227 = PERSON ( 'UNSPECIFIED', 'UNSPECIFIED', 'UNSPECIFIED', ('UNSPECIFIED'), ('UNSPECIFIED'), ('UNSPECIFIED') ) ;
#228 = VERTEX_POINT ( 'NONE', #92 ) ;
#229 = DATE_AND_TIME ( #83, #174 ) ;
#230 = APPROVAL_ROLE ( '' ) ;
#231 = ORIENTED_EDGE ( 'NONE', *, *, #169, .T. ) ;
#232 = PERSON_AND_ORGANIZATION ( #227, #94 ) ;
#233 = EDGE_CURVE ( 'NONE', #228, #43, #58, .T. ) ;
#234 = ADVANCED_FACE ( 'NONE', ( #98 ), #32, .T. ) ;
#235 = ORIENTED_EDGE ( 'NONE', *, *, #203, .F. ) ;
#236 = PERSON_AND_ORGANIZATION ( #227, #94 ) ;
#237 = DIRECTION ( 'NONE',  ( 0.0000000000000000000, 0.0000000000000000000, 1.000000000000000000 ) ) ;
ENDSEC;
END-ISO-10303-21;
