ISO-10303-21;
HEADER;
FILE_DESCRIPTION (( 'STEP AP203' ),
    '1' );
FILE_NAME ('Web Model 14965_14978.step',
    '2021-06-14T15:16:58',
    ( '' ),
    ( '' ),
    'SwSTEP 2.0',
    'SolidWorks 2018',
    '' );
FILE_SCHEMA (( 'CONFIG_CONTROL_DESIGN' ));
ENDSEC;

DATA;
#1 = CARTESIAN_POINT ( 'NONE',  ( 2.000000000000000000, 0.000000000000000000, 0.000000000000000000 ) ) ;
#2 = LOCAL_TIME ( 11, 16, 58.00000000000000000, #33 ) ;
#3 = APPLICATION_CONTEXT ( 'configuration controlled 3d designs of mechanical parts and assemblies' ) ;
#4 = APPROVAL_ROLE ( '' ) ;
#5 = VERTEX_POINT ( 'NONE', #46 ) ;
#6 = CARTESIAN_POINT ( 'NONE',  ( 2.000000000000000000, 2.449293598294706513E-15, -20.00000000000000000 ) ) ;
#7 = VERTEX_POINT ( 'NONE', #136 ) ;
#8 = CARTESIAN_POINT ( 'NONE',  ( 2.000000000000000000, 0.000000000000000000, 0.000000000000000000 ) ) ;
#9 = EDGE_CURVE ( 'NONE', #7, #39, #40, .T. ) ;
#10 = DATE_TIME_ROLE ( 'classification_date' ) ;
#11 = MANIFOLD_SOLID_BREP ( 'Boss-Extrude1', #159 ) ;
#12 = PERSON_AND_ORGANIZATION ( #41, #148 ) ;
#13 = CC_DESIGN_PERSON_AND_ORGANIZATION_ASSIGNMENT ( #160, #99, ( #44 ) ) ;
#14 = EDGE_LOOP ( 'NONE', ( #130, #29 ) ) ;
#15 = LOCAL_TIME ( 11, 16, 58.00000000000000000, #166 ) ;
#16 = CALENDAR_DATE ( 2021, 14, 6 ) ;
#17 = COORDINATED_UNIVERSAL_TIME_OFFSET ( 5, 0, .BEHIND. ) ;
#18 = DIRECTION ( 'NONE',  ( 0.000000000000000000, 0.000000000000000000, -1.000000000000000000 ) ) ;
#19 = DIRECTION ( 'NONE',  ( 0.000000000000000000, 0.000000000000000000, -1.000000000000000000 ) ) ;
#20 = APPROVAL_PERSON_ORGANIZATION ( #12, #111, #4 ) ;
#21 = CARTESIAN_POINT ( 'NONE',  ( 2.000000000000000000, 0.000000000000000000, 0.000000000000000000 ) ) ;
#22 = CC_DESIGN_DATE_AND_TIME_ASSIGNMENT ( #49, #10, ( #173 ) ) ;
#23 = APPROVAL_DATE_TIME ( #171, #111 ) ;
#24 = FACE_OUTER_BOUND ( 'NONE', #38, .T. ) ;
#25 = PERSON_AND_ORGANIZATION ( #41, #148 ) ;
#26 = CYLINDRICAL_SURFACE ( 'NONE', #47, 20.00000000000000000 ) ;
#27 = ADVANCED_FACE ( 'NONE', ( #94 ), #28, .F. ) ;
#28 = PLANE ( 'NONE',  #147 ) ;
#29 = ORIENTED_EDGE ( 'NONE', *, *, #114, .F. ) ;
#30 = CARTESIAN_POINT ( 'NONE',  ( -2.000000000000000000, 0.000000000000000000, 0.000000000000000000 ) ) ;
#31 =( GEOMETRIC_REPRESENTATION_CONTEXT ( 3 ) GLOBAL_UNCERTAINTY_ASSIGNED_CONTEXT ( ( #163 ) ) GLOBAL_UNIT_ASSIGNED_CONTEXT ( ( #74, #65, #119 ) ) REPRESENTATION_CONTEXT ( 'NONE', 'WORKASPACE' ) );
#32 = DIRECTION ( 'NONE',  ( 1.000000000000000000, 0.000000000000000000, 0.000000000000000000 ) ) ;
#33 = COORDINATED_UNIVERSAL_TIME_OFFSET ( 5, 0, .BEHIND. ) ;
#34 = CC_DESIGN_APPROVAL ( #61, ( #143 ) ) ;
#35 = DIRECTION ( 'NONE',  ( 0.000000000000000000, 0.000000000000000000, 1.000000000000000000 ) ) ;
#36 = ORIENTED_EDGE ( 'NONE', *, *, #150, .F. ) ;
#37 = CIRCLE ( 'NONE', #134, 20.00000000000000000 ) ;
#38 = EDGE_LOOP ( 'NONE', ( #54, #135, #59, #172 ) ) ;
#39 = VERTEX_POINT ( 'NONE', #60 ) ;
#40 = LINE ( 'NONE', #162, #88 ) ;
#41 = PERSON ( 'UNSPECIFIED', 'UNSPECIFIED', 'UNSPECIFIED', ('UNSPECIFIED'), ('UNSPECIFIED'), ('UNSPECIFIED') ) ;
#42 = CC_DESIGN_PERSON_AND_ORGANIZATION_ASSIGNMENT ( #48, #165, ( #83 ) ) ;
#43 = LOCAL_TIME ( 11, 16, 58.00000000000000000, #17 ) ;
#44 = PRODUCT_DEFINITION_FORMATION_WITH_SPECIFIED_SOURCE ( 'ANY', '', #83, .NOT_KNOWN. ) ;
#45 = CIRCLE ( 'NONE', #145, 20.00000000000000000 ) ;
#46 = CARTESIAN_POINT ( 'NONE',  ( 2.000000000000000000, 2.449293598294706513E-15, -20.00000000000000000 ) ) ;
#47 = AXIS2_PLACEMENT_3D ( 'NONE', #101, #142, #121 ) ;
#48 = PERSON_AND_ORGANIZATION ( #41, #148 ) ;
#49 = DATE_AND_TIME ( #161, #2 ) ;
#50 = ADVANCED_FACE ( 'NONE', ( #141 ), #26, .T. ) ;
#51 = APPLICATION_PROTOCOL_DEFINITION ( 'international standard', 'config_control_design', 1994, #87 ) ;
#52 = CARTESIAN_POINT ( 'NONE',  ( -2.000000000000000000, 2.449293598294706513E-15, -20.00000000000000000 ) ) ;
#53 = CARTESIAN_POINT ( 'NONE',  ( -2.000000000000000000, 0.000000000000000000, 0.000000000000000000 ) ) ;
#54 = ORIENTED_EDGE ( 'NONE', *, *, #127, .F. ) ;
#55 = CALENDAR_DATE ( 2021, 14, 6 ) ;
#56 = CYLINDRICAL_SURFACE ( 'NONE', #77, 20.00000000000000000 ) ;
#57 = CC_DESIGN_APPROVAL ( #111, ( #44 ) ) ;
#58 = CC_DESIGN_PERSON_AND_ORGANIZATION_ASSIGNMENT ( #92, #153, ( #143 ) ) ;
#59 = ORIENTED_EDGE ( 'NONE', *, *, #114, .T. ) ;
#60 = CARTESIAN_POINT ( 'NONE',  ( -2.000000000000000000, 0.000000000000000000, 20.00000000000000000 ) ) ;
#61 = APPROVAL ( #110, 'UNSPECIFIED' ) ;
#62 = DIRECTION ( 'NONE',  ( 0.000000000000000000, 0.000000000000000000, -1.000000000000000000 ) ) ;
#63 = CC_DESIGN_PERSON_AND_ORGANIZATION_ASSIGNMENT ( #25, #128, ( #173 ) ) ;
#64 = DATE_AND_TIME ( #70, #15 ) ;
#65 =( NAMED_UNIT ( * ) PLANE_ANGLE_UNIT ( ) SI_UNIT ( $, .RADIAN. ) );
#66 = DIRECTION ( 'NONE',  ( -1.000000000000000000, -0.000000000000000000, -0.000000000000000000 ) ) ;
#67 = CC_DESIGN_SECURITY_CLASSIFICATION ( #173, ( #44 ) ) ;
#68 = APPROVAL_STATUS ( 'not_yet_approved' ) ;
#69 = EDGE_CURVE ( 'NONE', #39, #125, #102, .T. ) ;
#70 = CALENDAR_DATE ( 2021, 14, 6 ) ;
#71 = CC_DESIGN_PERSON_AND_ORGANIZATION_ASSIGNMENT ( #133, #167, ( #44 ) ) ;
#72 = CARTESIAN_POINT ( 'NONE',  ( 0.000000000000000000, 0.000000000000000000, 0.000000000000000000 ) ) ;
#73 = APPLICATION_PROTOCOL_DEFINITION ( 'international standard', 'config_control_design', 1994, #3 ) ;
#74 =( LENGTH_UNIT ( ) NAMED_UNIT ( * ) SI_UNIT ( .MILLI., .METRE. ) );
#75 = APPROVAL_STATUS ( 'not_yet_approved' ) ;
#76 = DIRECTION ( 'NONE',  ( 0.000000000000000000, 0.000000000000000000, -1.000000000000000000 ) ) ;
#77 = AXIS2_PLACEMENT_3D ( 'NONE', #8, #149, #35 ) ;
#78 = LINE ( 'NONE', #6, #129 ) ;
#79 = COORDINATED_UNIVERSAL_TIME_OFFSET ( 5, 0, .BEHIND. ) ;
#80 = PRODUCT_DEFINITION_SHAPE ( 'NONE', 'NONE',  #143 ) ;
#81 = AXIS2_PLACEMENT_3D ( 'NONE', #169, #107, #62 ) ;
#82 = CIRCLE ( 'NONE', #156, 20.00000000000000000 ) ;
#83 = PRODUCT ( 'Web Model 14965_14978', 'Web Model 14965_14978', '', ( #164 ) ) ;
#84 = DESIGN_CONTEXT ( 'detailed design', #87, 'design' ) ;
#85 = DIRECTION ( 'NONE',  ( -1.000000000000000000, -0.000000000000000000, -0.000000000000000000 ) ) ;
#86 = PERSON_AND_ORGANIZATION ( #41, #148 ) ;
#87 = APPLICATION_CONTEXT ( 'configuration controlled 3d designs of mechanical parts and assemblies' ) ;
#88 = VECTOR ( 'NONE', #85, 1000.000000000000000 ) ;
#89 = CC_DESIGN_APPROVAL ( #175, ( #173 ) ) ;
#90 = DIRECTION ( 'NONE',  ( 1.000000000000000000, 0.000000000000000000, 0.000000000000000000 ) ) ;
#91 = DIRECTION ( 'NONE',  ( 1.000000000000000000, 0.000000000000000000, 0.000000000000000000 ) ) ;
#92 = PERSON_AND_ORGANIZATION ( #41, #148 ) ;
#93 = COORDINATED_UNIVERSAL_TIME_OFFSET ( 5, 0, .BEHIND. ) ;
#94 = FACE_OUTER_BOUND ( 'NONE', #14, .T. ) ;
#95 = APPROVAL_DATE_TIME ( #151, #61 ) ;
#96 = AXIS2_PLACEMENT_3D ( 'NONE', #72, #137, #32 ) ;
#97 = ORIENTED_EDGE ( 'NONE', *, *, #150, .T. ) ;
#98 = DIRECTION ( 'NONE',  ( 1.000000000000000000, 0.000000000000000000, 0.000000000000000000 ) ) ;
#99 = PERSON_AND_ORGANIZATION_ROLE ( 'creator' ) ;
#100 = FACE_OUTER_BOUND ( 'NONE', #104, .T. ) ;
#101 = CARTESIAN_POINT ( 'NONE',  ( 2.000000000000000000, 0.000000000000000000, 0.000000000000000000 ) ) ;
#102 = CIRCLE ( 'NONE', #103, 20.00000000000000000 ) ;
#103 = AXIS2_PLACEMENT_3D ( 'NONE', #30, #90, #155 ) ;
#104 = EDGE_LOOP ( 'NONE', ( #97, #118 ) ) ;
#105 = SHAPE_DEFINITION_REPRESENTATION ( #80, #154 ) ;
#106 = EDGE_CURVE ( 'NONE', #5, #125, #78, .T. ) ;
#107 = DIRECTION ( 'NONE',  ( 1.000000000000000000, 0.000000000000000000, 0.000000000000000000 ) ) ;
#108 = APPROVAL_PERSON_ORGANIZATION ( #86, #61, #139 ) ;
#109 = DIRECTION ( 'NONE',  ( 1.000000000000000000, 0.000000000000000000, 0.000000000000000000 ) ) ;
#110 = APPROVAL_STATUS ( 'not_yet_approved' ) ;
#111 = APPROVAL ( #75, 'UNSPECIFIED' ) ;
#112 = CALENDAR_DATE ( 2021, 14, 6 ) ;
#113 = LOCAL_TIME ( 11, 16, 58.00000000000000000, #79 ) ;
#114 = EDGE_CURVE ( 'NONE', #125, #39, #45, .T. ) ;
#115 = PRODUCT_RELATED_PRODUCT_CATEGORY ( 'detail', '', ( #83 ) ) ;
#116 = APPROVAL_PERSON_ORGANIZATION ( #123, #175, #170 ) ;
#117 = CARTESIAN_POINT ( 'NONE',  ( -2.000000000000000000, 0.000000000000000000, 0.000000000000000000 ) ) ;
#118 = ORIENTED_EDGE ( 'NONE', *, *, #127, .T. ) ;
#119 =( NAMED_UNIT ( * ) SI_UNIT ( $, .STERADIAN. ) SOLID_ANGLE_UNIT ( ) );
#120 = ADVANCED_FACE ( 'NONE', ( #100 ), #122, .T. ) ;
#121 = DIRECTION ( 'NONE',  ( 0.000000000000000000, 0.000000000000000000, 1.000000000000000000 ) ) ;
#122 = PLANE ( 'NONE',  #81 ) ;
#123 = PERSON_AND_ORGANIZATION ( #41, #148 ) ;
#124 = DIRECTION ( 'NONE',  ( 1.000000000000000000, 0.000000000000000000, 0.000000000000000000 ) ) ;
#125 = VERTEX_POINT ( 'NONE', #52 ) ;
#126 = ORIENTED_EDGE ( 'NONE', *, *, #9, .T. ) ;
#127 = EDGE_CURVE ( 'NONE', #5, #7, #37, .T. ) ;
#128 = PERSON_AND_ORGANIZATION_ROLE ( 'classification_officer' ) ;
#129 = VECTOR ( 'NONE', #66, 1000.000000000000000 ) ;
#130 = ORIENTED_EDGE ( 'NONE', *, *, #69, .F. ) ;
#131 = APPROVAL_DATE_TIME ( #144, #175 ) ;
#132 = ORIENTED_EDGE ( 'NONE', *, *, #69, .T. ) ;
#133 = PERSON_AND_ORGANIZATION ( #41, #148 ) ;
#134 = AXIS2_PLACEMENT_3D ( 'NONE', #1, #91, #19 ) ;
#135 = ORIENTED_EDGE ( 'NONE', *, *, #106, .T. ) ;
#136 = CARTESIAN_POINT ( 'NONE',  ( 2.000000000000000000, 0.000000000000000000, 20.00000000000000000 ) ) ;
#137 = DIRECTION ( 'NONE',  ( 0.000000000000000000, 0.000000000000000000, 1.000000000000000000 ) ) ;
#138 = DIRECTION ( 'NONE',  ( 0.000000000000000000, 0.000000000000000000, -1.000000000000000000 ) ) ;
#139 = APPROVAL_ROLE ( '' ) ;
#140 = ADVANCED_FACE ( 'NONE', ( #24 ), #56, .T. ) ;
#141 = FACE_OUTER_BOUND ( 'NONE', #174, .T. ) ;
#142 = DIRECTION ( 'NONE',  ( -1.000000000000000000, -0.000000000000000000, -0.000000000000000000 ) ) ;
#143 = PRODUCT_DEFINITION ( 'UNKNOWN', '', #44, #84 ) ;
#144 = DATE_AND_TIME ( #55, #158 ) ;
#145 = AXIS2_PLACEMENT_3D ( 'NONE', #53, #98, #138 ) ;
#146 = ORIENTED_EDGE ( 'NONE', *, *, #106, .F. ) ;
#147 = AXIS2_PLACEMENT_3D ( 'NONE', #117, #124, #18 ) ;
#148 = ORGANIZATION ( 'UNSPECIFIED', 'UNSPECIFIED', '' ) ;
#149 = DIRECTION ( 'NONE',  ( -1.000000000000000000, -0.000000000000000000, -0.000000000000000000 ) ) ;
#150 = EDGE_CURVE ( 'NONE', #7, #5, #82, .T. ) ;
#151 = DATE_AND_TIME ( #16, #113 ) ;
#152 = DATE_TIME_ROLE ( 'creation_date' ) ;
#153 = PERSON_AND_ORGANIZATION_ROLE ( 'creator' ) ;
#154 = ADVANCED_BREP_SHAPE_REPRESENTATION ( 'Web Model 14965_14978', ( #11, #96 ), #31 ) ;
#155 = DIRECTION ( 'NONE',  ( 0.000000000000000000, 0.000000000000000000, -1.000000000000000000 ) ) ;
#156 = AXIS2_PLACEMENT_3D ( 'NONE', #21, #109, #76 ) ;
#157 = SECURITY_CLASSIFICATION_LEVEL ( 'unclassified' ) ;
#158 = LOCAL_TIME ( 11, 16, 58.00000000000000000, #93 ) ;
#159 = CLOSED_SHELL ( 'NONE', ( #140, #50, #120, #27 ) ) ;
#160 = PERSON_AND_ORGANIZATION ( #41, #148 ) ;
#161 = CALENDAR_DATE ( 2021, 14, 6 ) ;
#162 = CARTESIAN_POINT ( 'NONE',  ( 2.000000000000000000, 0.000000000000000000, 20.00000000000000000 ) ) ;
#163 = UNCERTAINTY_MEASURE_WITH_UNIT (LENGTH_MEASURE( 1.000000000000000082E-05 ), #74, 'distance_accuracy_value', 'NONE');
#164 = MECHANICAL_CONTEXT ( 'NONE', #3, 'mechanical' ) ;
#165 = PERSON_AND_ORGANIZATION_ROLE ( 'design_owner' ) ;
#166 = COORDINATED_UNIVERSAL_TIME_OFFSET ( 5, 0, .BEHIND. ) ;
#167 = PERSON_AND_ORGANIZATION_ROLE ( 'design_supplier' ) ;
#168 = CC_DESIGN_DATE_AND_TIME_ASSIGNMENT ( #64, #152, ( #143 ) ) ;
#169 = CARTESIAN_POINT ( 'NONE',  ( 2.000000000000000000, 0.000000000000000000, 0.000000000000000000 ) ) ;
#170 = APPROVAL_ROLE ( '' ) ;
#171 = DATE_AND_TIME ( #112, #43 ) ;
#172 = ORIENTED_EDGE ( 'NONE', *, *, #9, .F. ) ;
#173 = SECURITY_CLASSIFICATION ( '', '', #157 ) ;
#174 = EDGE_LOOP ( 'NONE', ( #146, #36, #126, #132 ) ) ;
#175 = APPROVAL ( #68, 'UNSPECIFIED' ) ;
ENDSEC;
END-ISO-10303-21;
