ISO-10303-21;
HEADER;
FILE_DESCRIPTION (( 'STEP AP203' ),
    '1' );
FILE_NAME ('Web Model 46688.STEP',
    '2017-01-31T15:19:18',
    ( '' ),
    ( '' ),
    'SwSTEP 2.0',
    'SolidWorks 2016',
    '' );
FILE_SCHEMA (( 'CONFIG_CONTROL_DESIGN' ));
ENDSEC;

DATA;
#1 = CARTESIAN_POINT ( 'NONE',  ( -9.000000000000003600, -14.99999999999999600, 0.0000000000000000000 ) ) ;
#2 = EDGE_LOOP ( 'NONE', ( #155, #97, #185, #87 ) ) ;
#3 = CARTESIAN_POINT ( 'NONE',  ( -9.000000000000007100, 15.00000000000000400, 0.0000000000000000000 ) ) ;
#4 = CC_DESIGN_APPROVAL ( #103, ( #91 ) ) ;
#5 = LINE ( 'NONE', #222, #42 ) ;
#6 = ORIENTED_EDGE ( 'NONE', *, *, #208, .T. ) ;
#7 = CARTESIAN_POINT ( 'NONE',  ( -9.000000000000007100, 15.00000000000000400, 2.000000000000000000 ) ) ;
#8 = CARTESIAN_POINT ( 'NONE',  ( -9.000000000000007100, 15.00000000000000400, 2.000000000000000000 ) ) ;
#9 = CC_DESIGN_DATE_AND_TIME_ASSIGNMENT ( #140, #74, ( #59 ) ) ;
#10 = CARTESIAN_POINT ( 'NONE',  ( -9.000000000000007100, 15.00000000000000400, 2.000000000000000000 ) ) ;
#11 = DATE_AND_TIME ( #34, #188 ) ;
#12 = EDGE_CURVE ( 'NONE', #129, #100, #22, .T. ) ;
#13 = ORIENTED_EDGE ( 'NONE', *, *, #62, .F. ) ;
#14 = APPROVAL_STATUS ( 'not_yet_approved' ) ;
#15 = APPROVAL_ROLE ( '' ) ;
#16 = AXIS2_PLACEMENT_3D ( 'NONE', #232, #156, #196 ) ;
#17 = CARTESIAN_POINT ( 'NONE',  ( -9.000000000000003600, -14.99999999999999600, 2.000000000000000000 ) ) ;
#18 = CLOSED_SHELL ( 'NONE', ( #66, #51, #83, #224, #184, #99 ) ) ;
#19 = DIRECTION ( 'NONE',  ( 1.000000000000000000, 1.156482317317871700E-016, -0.0000000000000000000 ) ) ;
#20 = DIRECTION ( 'NONE',  ( -1.000000000000000000, -0.0000000000000000000, -0.0000000000000000000 ) ) ;
#21 = DATE_AND_TIME ( #124, #153 ) ;
#22 = LINE ( 'NONE', #187, #160 ) ;
#23 = DIRECTION ( 'NONE',  ( -1.156482317317871500E-016, 1.000000000000000000, -0.0000000000000000000 ) ) ;
#24 = PLANE ( 'NONE',  #183 ) ;
#25 = VECTOR ( 'NONE', #23, 1000.000000000000000 ) ;
#26 = DIRECTION ( 'NONE',  ( -1.000000000000000000, -1.156482317317871700E-016, 0.0000000000000000000 ) ) ;
#27 = COORDINATED_UNIVERSAL_TIME_OFFSET ( 5, 0, .BEHIND. ) ;
#28 = APPROVAL ( #120, 'UNSPECIFIED' ) ;
#29 = ORIENTED_EDGE ( 'NONE', *, *, #62, .T. ) ;
#30 = LINE ( 'NONE', #128, #44 ) ;
#31 = EDGE_CURVE ( 'NONE', #37, #56, #213, .T. ) ;
#32 = LINE ( 'NONE', #7, #237 ) ;
#33 = APPROVAL_ROLE ( '' ) ;
#34 = CALENDAR_DATE ( 2017, 31, 1 ) ;
#35 = CARTESIAN_POINT ( 'NONE',  ( 8.999999999999996400, -14.99999999999999600, 0.0000000000000000000 ) ) ;
#36 = CARTESIAN_POINT ( 'NONE',  ( 8.999999999999996400, -14.99999999999999600, 0.0000000000000000000 ) ) ;
#37 = VERTEX_POINT ( 'NONE', #50 ) ;
#38 = LINE ( 'NONE', #69, #115 ) ;
#39 = PERSON_AND_ORGANIZATION ( #111, #95 ) ;
#40 = UNCERTAINTY_MEASURE_WITH_UNIT (LENGTH_MEASURE( 1.000000000000000100E-005 ), #107, 'distance_accuracy_value', 'NONE');
#41 = APPROVAL ( #123, 'UNSPECIFIED' ) ;
#42 = VECTOR ( 'NONE', #65, 1000.000000000000000 ) ;
#43 = ORIENTED_EDGE ( 'NONE', *, *, #169, .T. ) ;
#44 = VECTOR ( 'NONE', #180, 1000.000000000000000 ) ;
#45 = PLANE ( 'NONE',  #191 ) ;
#46 = EDGE_CURVE ( 'NONE', #85, #47, #79, .T. ) ;
#47 = VERTEX_POINT ( 'NONE', #98 ) ;
#48 = DIRECTION ( 'NONE',  ( 0.0000000000000000000, -0.0000000000000000000, -1.000000000000000000 ) ) ;
#49 = CALENDAR_DATE ( 2017, 31, 1 ) ;
#50 = CARTESIAN_POINT ( 'NONE',  ( 8.999999999999992900, 15.00000000000000400, 2.000000000000000000 ) ) ;
#51 = ADVANCED_FACE ( 'NONE', ( #71 ), #24, .F. ) ;
#52 = ORIENTED_EDGE ( 'NONE', *, *, #177, .T. ) ;
#53 = ADVANCED_BREP_SHAPE_REPRESENTATION ( 'Web Model 46688', ( #102, #16 ), #204 ) ;
#54 = CC_DESIGN_SECURITY_CLASSIFICATION ( #59, ( #91 ) ) ;
#55 = LINE ( 'NONE', #202, #82 ) ;
#56 = VERTEX_POINT ( 'NONE', #64 ) ;
#57 = CARTESIAN_POINT ( 'NONE',  ( -9.000000000000007100, 15.00000000000000400, 0.0000000000000000000 ) ) ;
#58 = CARTESIAN_POINT ( 'NONE',  ( -9.000000000000003600, -14.99999999999999600, 0.0000000000000000000 ) ) ;
#59 = SECURITY_CLASSIFICATION ( '', '', #90 ) ;
#60 = CALENDAR_DATE ( 2017, 31, 1 ) ;
#61 = COORDINATED_UNIVERSAL_TIME_OFFSET ( 5, 0, .BEHIND. ) ;
#62 = EDGE_CURVE ( 'NONE', #56, #129, #32, .T. ) ;
#63 = EDGE_LOOP ( 'NONE', ( #171, #206, #114, #149 ) ) ;
#64 = CARTESIAN_POINT ( 'NONE',  ( -9.000000000000007100, 15.00000000000000400, 2.000000000000000000 ) ) ;
#65 = DIRECTION ( 'NONE',  ( -0.0000000000000000000, -0.0000000000000000000, -1.000000000000000000 ) ) ;
#66 = ADVANCED_FACE ( 'NONE', ( #197 ), #45, .F. ) ;
#67 = VECTOR ( 'NONE', #162, 1000.000000000000000 ) ;
#68 = VERTEX_POINT ( 'NONE', #150 ) ;
#69 = CARTESIAN_POINT ( 'NONE',  ( 8.999999999999992900, 15.00000000000000400, 2.000000000000000000 ) ) ;
#70 = CC_DESIGN_APPROVAL ( #41, ( #59 ) ) ;
#71 = FACE_OUTER_BOUND ( 'NONE', #137, .T. ) ;
#72 = PERSON_AND_ORGANIZATION_ROLE ( 'creator' ) ;
#73 = PLANE ( 'NONE',  #216 ) ;
#74 = DATE_TIME_ROLE ( 'classification_date' ) ;
#75 = APPROVAL_DATE_TIME ( #235, #41 ) ;
#76 = EDGE_CURVE ( 'NONE', #68, #85, #5, .T. ) ;
#77 = DIRECTION ( 'NONE',  ( -0.0000000000000000000, 0.0000000000000000000, 1.000000000000000000 ) ) ;
#78 = CARTESIAN_POINT ( 'NONE',  ( 8.999999999999992900, 15.00000000000000400, 2.000000000000000000 ) ) ;
#79 = LINE ( 'NONE', #166, #25 ) ;
#80 = LINE ( 'NONE', #78, #221 ) ;
#81 = PLANE ( 'NONE',  #154 ) ;
#82 = VECTOR ( 'NONE', #178, 1000.000000000000000 ) ;
#83 = ADVANCED_FACE ( 'NONE', ( #132 ), #167, .F. ) ;
#84 = PERSON_AND_ORGANIZATION ( #111, #95 ) ;
#85 = VERTEX_POINT ( 'NONE', #36 ) ;
#86 = EDGE_CURVE ( 'NONE', #56, #212, #30, .T. ) ;
#87 = ORIENTED_EDGE ( 'NONE', *, *, #76, .T. ) ;
#88 = APPROVAL_ROLE ( '' ) ;
#89 = PERSON_AND_ORGANIZATION ( #111, #95 ) ;
#90 = SECURITY_CLASSIFICATION_LEVEL ( 'unclassified' ) ;
#91 = PRODUCT_DEFINITION_FORMATION_WITH_SPECIFIED_SOURCE ( 'ANY', '', #144, .NOT_KNOWN. ) ;
#92 = DIRECTION ( 'NONE',  ( -1.156482317317871700E-016, 1.000000000000000000, 0.0000000000000000000 ) ) ;
#93 = PRODUCT_DEFINITION_SHAPE ( 'NONE', 'NONE',  #118 ) ;
#94 = ORIENTED_EDGE ( 'NONE', *, *, #12, .T. ) ;
#95 = ORGANIZATION ( 'UNSPECIFIED', 'UNSPECIFIED', '' ) ;
#96 = COORDINATED_UNIVERSAL_TIME_OFFSET ( 5, 0, .BEHIND. ) ;
#97 = ORIENTED_EDGE ( 'NONE', *, *, #230, .F. ) ;
#98 = CARTESIAN_POINT ( 'NONE',  ( 8.999999999999992900, 15.00000000000000400, 0.0000000000000000000 ) ) ;
#99 = ADVANCED_FACE ( 'NONE', ( #170 ), #81, .F. ) ;
#100 = VERTEX_POINT ( 'NONE', #58 ) ;
#101 = DIRECTION ( 'NONE',  ( 1.156482317317871500E-016, -1.000000000000000000, 0.0000000000000000000 ) ) ;
#102 = MANIFOLD_SOLID_BREP ( 'Extrude1', #18 ) ;
#103 = APPROVAL ( #14, 'UNSPECIFIED' ) ;
#104 = ORIENTED_EDGE ( 'NONE', *, *, #31, .F. ) ;
#105 = ORIENTED_EDGE ( 'NONE', *, *, #199, .T. ) ;
#106 = APPLICATION_PROTOCOL_DEFINITION ( 'international standard', 'config_control_design', 1994, #172 ) ;
#107 =( LENGTH_UNIT ( ) NAMED_UNIT ( * ) SI_UNIT ( .MILLI., .METRE. ) );
#108 = PERSON_AND_ORGANIZATION ( #111, #95 ) ;
#109 = DATE_AND_TIME ( #60, #229 ) ;
#110 = EDGE_LOOP ( 'NONE', ( #192, #207, #231, #94 ) ) ;
#111 = PERSON ( 'UNSPECIFIED', 'UNSPECIFIED', 'UNSPECIFIED', ('UNSPECIFIED'), ('UNSPECIFIED'), ('UNSPECIFIED') ) ;
#112 = PLANE ( 'NONE',  #147 ) ;
#113 = DIRECTION ( 'NONE',  ( 1.000000000000000000, 0.0000000000000000000, 0.0000000000000000000 ) ) ;
#114 = ORIENTED_EDGE ( 'NONE', *, *, #199, .F. ) ;
#115 = VECTOR ( 'NONE', #214, 1000.000000000000000 ) ;
#116 = LINE ( 'NONE', #1, #67 ) ;
#117 = DIRECTION ( 'NONE',  ( -0.0000000000000000000, -0.0000000000000000000, -1.000000000000000000 ) ) ;
#118 = PRODUCT_DEFINITION ( 'UNKNOWN', '', #91, #218 ) ;
#119 = COORDINATED_UNIVERSAL_TIME_OFFSET ( 5, 0, .BEHIND. ) ;
#120 = APPROVAL_STATUS ( 'not_yet_approved' ) ;
#121 = LINE ( 'NONE', #3, #203 ) ;
#122 = PERSON_AND_ORGANIZATION_ROLE ( 'design_owner' ) ;
#123 = APPROVAL_STATUS ( 'not_yet_approved' ) ;
#124 = CALENDAR_DATE ( 2017, 31, 1 ) ;
#125 = ORIENTED_EDGE ( 'NONE', *, *, #12, .F. ) ;
#126 = DIRECTION ( 'NONE',  ( -0.0000000000000000000, 0.0000000000000000000, 1.000000000000000000 ) ) ;
#127 = VECTOR ( 'NONE', #113, 1000.000000000000000 ) ;
#128 = CARTESIAN_POINT ( 'NONE',  ( -9.000000000000007100, 15.00000000000000400, 2.000000000000000000 ) ) ;
#129 = VERTEX_POINT ( 'NONE', #145 ) ;
#130 = CC_DESIGN_PERSON_AND_ORGANIZATION_ASSIGNMENT ( #89, #72, ( #91 ) ) ;
#131 = LOCAL_TIME ( 10, 19, 18.00000000000000000, #96 ) ;
#132 = FACE_OUTER_BOUND ( 'NONE', #143, .T. ) ;
#133 = CARTESIAN_POINT ( 'NONE',  ( 8.999999999999992900, 15.00000000000000400, 2.000000000000000000 ) ) ;
#134 = VECTOR ( 'NONE', #135, 1000.000000000000000 ) ;
#135 = DIRECTION ( 'NONE',  ( -1.000000000000000000, -0.0000000000000000000, -0.0000000000000000000 ) ) ;
#136 = APPROVAL_DATE_TIME ( #11, #103 ) ;
#137 = EDGE_LOOP ( 'NONE', ( #52, #179, #104, #223 ) ) ;
#138 = APPLICATION_CONTEXT ( 'configuration controlled 3d designs of mechanical parts and assemblies' ) ;
#139 = AXIS2_PLACEMENT_3D ( 'NONE', #8, #19, #92 ) ;
#140 = DATE_AND_TIME ( #211, #225 ) ;
#141 =( NAMED_UNIT ( * ) PLANE_ANGLE_UNIT ( ) SI_UNIT ( $, .RADIAN. ) );
#142 = CC_DESIGN_PERSON_AND_ORGANIZATION_ASSIGNMENT ( #182, #234, ( #118 ) ) ;
#143 = EDGE_LOOP ( 'NONE', ( #105, #125, #13, #190 ) ) ;
#144 = PRODUCT ( 'Web Model 46688', 'Web Model 46688', '', ( #158 ) ) ;
#145 = CARTESIAN_POINT ( 'NONE',  ( -9.000000000000003600, -14.99999999999999600, 2.000000000000000000 ) ) ;
#146 = DIRECTION ( 'NONE',  ( -1.156482317317871500E-016, 1.000000000000000000, -0.0000000000000000000 ) ) ;
#147 = AXIS2_PLACEMENT_3D ( 'NONE', #163, #126, #181 ) ;
#148 = FACE_OUTER_BOUND ( 'NONE', #110, .T. ) ;
#149 = ORIENTED_EDGE ( 'NONE', *, *, #177, .F. ) ;
#150 = CARTESIAN_POINT ( 'NONE',  ( 8.999999999999996400, -14.99999999999999600, 2.000000000000000000 ) ) ;
#151 = CARTESIAN_POINT ( 'NONE',  ( -9.000000000000007100, 15.00000000000000400, 2.000000000000000000 ) ) ;
#152 = CC_DESIGN_PERSON_AND_ORGANIZATION_ASSIGNMENT ( #39, #194, ( #91 ) ) ;
#153 = LOCAL_TIME ( 10, 19, 18.00000000000000000, #119 ) ;
#154 = AXIS2_PLACEMENT_3D ( 'NONE', #35, #77, #201 ) ;
#155 = ORIENTED_EDGE ( 'NONE', *, *, #46, .T. ) ;
#156 = DIRECTION ( 'NONE',  ( 0.0000000000000000000, 0.0000000000000000000, 1.000000000000000000 ) ) ;
#157 = DIRECTION ( 'NONE',  ( 0.0000000000000000000, -0.0000000000000000000, 1.000000000000000000 ) ) ;
#158 = MECHANICAL_CONTEXT ( 'NONE', #138, 'mechanical' ) ;
#159 = PERSON_AND_ORGANIZATION ( #111, #95 ) ;
#160 = VECTOR ( 'NONE', #117, 1000.000000000000000 ) ;
#161 = CARTESIAN_POINT ( 'NONE',  ( -9.000000000000003600, -14.99999999999999600, 2.000000000000000000 ) ) ;
#162 = DIRECTION ( 'NONE',  ( 1.000000000000000000, 0.0000000000000000000, 0.0000000000000000000 ) ) ;
#163 = CARTESIAN_POINT ( 'NONE',  ( 8.999999999999996400, -14.99999999999999600, 2.000000000000000000 ) ) ;
#164 = PRODUCT_RELATED_PRODUCT_CATEGORY ( 'detail', '', ( #144 ) ) ;
#165 = APPROVAL_PERSON_ORGANIZATION ( #198, #41, #15 ) ;
#166 = CARTESIAN_POINT ( 'NONE',  ( 8.999999999999992900, 15.00000000000000400, 0.0000000000000000000 ) ) ;
#167 = PLANE ( 'NONE',  #139 ) ;
#168 = PERSON_AND_ORGANIZATION ( #111, #95 ) ;
#169 = EDGE_CURVE ( 'NONE', #68, #37, #80, .T. ) ;
#170 = FACE_OUTER_BOUND ( 'NONE', #63, .T. ) ;
#171 = ORIENTED_EDGE ( 'NONE', *, *, #46, .F. ) ;
#172 = APPLICATION_CONTEXT ( 'configuration controlled 3d designs of mechanical parts and assemblies' ) ;
#173 = APPLICATION_PROTOCOL_DEFINITION ( 'international standard', 'config_control_design', 1994, #138 ) ;
#174 = SHAPE_DEFINITION_REPRESENTATION ( #93, #53 ) ;
#175 = DATE_TIME_ROLE ( 'creation_date' ) ;
#176 = APPROVAL_PERSON_ORGANIZATION ( #84, #28, #88 ) ;
#177 = EDGE_CURVE ( 'NONE', #47, #212, #121, .T. ) ;
#178 = DIRECTION ( 'NONE',  ( 1.156482317317871500E-016, -1.000000000000000000, 0.0000000000000000000 ) ) ;
#179 = ORIENTED_EDGE ( 'NONE', *, *, #86, .F. ) ;
#180 = DIRECTION ( 'NONE',  ( -0.0000000000000000000, -0.0000000000000000000, -1.000000000000000000 ) ) ;
#181 = DIRECTION ( 'NONE',  ( 1.000000000000000000, 0.0000000000000000000, 0.0000000000000000000 ) ) ;
#182 = PERSON_AND_ORGANIZATION ( #111, #95 ) ;
#183 = AXIS2_PLACEMENT_3D ( 'NONE', #151, #210, #48 ) ;
#184 = ADVANCED_FACE ( 'NONE', ( #227 ), #112, .T. ) ;
#185 = ORIENTED_EDGE ( 'NONE', *, *, #169, .F. ) ;
#186 = DIRECTION ( 'NONE',  ( 1.156482317317871700E-016, -1.000000000000000000, 0.0000000000000000000 ) ) ;
#187 = CARTESIAN_POINT ( 'NONE',  ( -9.000000000000003600, -14.99999999999999600, 2.000000000000000000 ) ) ;
#188 = LOCAL_TIME ( 10, 19, 18.00000000000000000, #27 ) ;
#189 = LINE ( 'NONE', #17, #127 ) ;
#190 = ORIENTED_EDGE ( 'NONE', *, *, #86, .T. ) ;
#191 = AXIS2_PLACEMENT_3D ( 'NONE', #133, #26, #186 ) ;
#192 = ORIENTED_EDGE ( 'NONE', *, *, #219, .T. ) ;
#193 =( NAMED_UNIT ( * ) SI_UNIT ( $, .STERADIAN. ) SOLID_ANGLE_UNIT ( ) );
#194 = PERSON_AND_ORGANIZATION_ROLE ( 'design_supplier' ) ;
#195 = COORDINATED_UNIVERSAL_TIME_OFFSET ( 5, 0, .BEHIND. ) ;
#196 = DIRECTION ( 'NONE',  ( 1.000000000000000000, 0.0000000000000000000, 0.0000000000000000000 ) ) ;
#197 = FACE_OUTER_BOUND ( 'NONE', #2, .T. ) ;
#198 = PERSON_AND_ORGANIZATION ( #111, #95 ) ;
#199 = EDGE_CURVE ( 'NONE', #212, #100, #55, .T. ) ;
#200 = EDGE_LOOP ( 'NONE', ( #43, #228, #29, #6 ) ) ;
#201 = DIRECTION ( 'NONE',  ( 1.000000000000000000, 0.0000000000000000000, 0.0000000000000000000 ) ) ;
#202 = CARTESIAN_POINT ( 'NONE',  ( -9.000000000000007100, 15.00000000000000400, 0.0000000000000000000 ) ) ;
#203 = VECTOR ( 'NONE', #20, 1000.000000000000000 ) ;
#204 =( GEOMETRIC_REPRESENTATION_CONTEXT ( 3 ) GLOBAL_UNCERTAINTY_ASSIGNED_CONTEXT ( ( #40 ) ) GLOBAL_UNIT_ASSIGNED_CONTEXT ( ( #107, #141, #193 ) ) REPRESENTATION_CONTEXT ( 'NONE', 'WORKASPACE' ) );
#205 = APPROVAL_PERSON_ORGANIZATION ( #108, #103, #33 ) ;
#206 = ORIENTED_EDGE ( 'NONE', *, *, #219, .F. ) ;
#207 = ORIENTED_EDGE ( 'NONE', *, *, #76, .F. ) ;
#208 = EDGE_CURVE ( 'NONE', #129, #68, #189, .T. ) ;
#209 = CC_DESIGN_DATE_AND_TIME_ASSIGNMENT ( #21, #175, ( #118 ) ) ;
#210 = DIRECTION ( 'NONE',  ( 0.0000000000000000000, -1.000000000000000000, 0.0000000000000000000 ) ) ;
#211 = CALENDAR_DATE ( 2017, 31, 1 ) ;
#212 = VERTEX_POINT ( 'NONE', #57 ) ;
#213 = LINE ( 'NONE', #10, #134 ) ;
#214 = DIRECTION ( 'NONE',  ( -0.0000000000000000000, -0.0000000000000000000, -1.000000000000000000 ) ) ;
#215 = PERSON_AND_ORGANIZATION_ROLE ( 'classification_officer' ) ;
#216 = AXIS2_PLACEMENT_3D ( 'NONE', #161, #236, #157 ) ;
#217 = APPROVAL_DATE_TIME ( #109, #28 ) ;
#218 = DESIGN_CONTEXT ( 'detailed design', #172, 'design' ) ;
#219 = EDGE_CURVE ( 'NONE', #100, #85, #116, .T. ) ;
#220 = CC_DESIGN_PERSON_AND_ORGANIZATION_ASSIGNMENT ( #159, #215, ( #59 ) ) ;
#221 = VECTOR ( 'NONE', #146, 1000.000000000000000 ) ;
#222 = CARTESIAN_POINT ( 'NONE',  ( 8.999999999999996400, -14.99999999999999600, 2.000000000000000000 ) ) ;
#223 = ORIENTED_EDGE ( 'NONE', *, *, #230, .T. ) ;
#224 = ADVANCED_FACE ( 'NONE', ( #148 ), #73, .F. ) ;
#225 = LOCAL_TIME ( 10, 19, 18.00000000000000000, #61 ) ;
#226 = CC_DESIGN_PERSON_AND_ORGANIZATION_ASSIGNMENT ( #168, #122, ( #144 ) ) ;
#227 = FACE_OUTER_BOUND ( 'NONE', #200, .T. ) ;
#228 = ORIENTED_EDGE ( 'NONE', *, *, #31, .T. ) ;
#229 = LOCAL_TIME ( 10, 19, 18.00000000000000000, #195 ) ;
#230 = EDGE_CURVE ( 'NONE', #37, #47, #38, .T. ) ;
#231 = ORIENTED_EDGE ( 'NONE', *, *, #208, .F. ) ;
#232 = CARTESIAN_POINT ( 'NONE',  ( 0.0000000000000000000, 0.0000000000000000000, 0.0000000000000000000 ) ) ;
#233 = CC_DESIGN_APPROVAL ( #28, ( #118 ) ) ;
#234 = PERSON_AND_ORGANIZATION_ROLE ( 'creator' ) ;
#235 = DATE_AND_TIME ( #49, #131 ) ;
#236 = DIRECTION ( 'NONE',  ( 0.0000000000000000000, 1.000000000000000000, 0.0000000000000000000 ) ) ;
#237 = VECTOR ( 'NONE', #101, 1000.000000000000000 ) ;
ENDSEC;
END-ISO-10303-21;
