ISO-10303-21;
HEADER;
FILE_DESCRIPTION (( 'STEP AP203' ),
    '1' );
FILE_NAME ('Web Model 19837_19865.step',
    '2022-04-06T15:05:44',
    ( 'WC' ),
    ( 'Windows Central' ),
    'SwSTEP 2.0',
    'SolidWorks 2021',
    '' );
FILE_SCHEMA (( 'CONFIG_CONTROL_DESIGN' ));
ENDSEC;

DATA;
#1 = DIRECTION ( 'NONE',  ( 0.000000000000000000, 0.000000000000000000, 1.000000000000000000 ) ) ;
#2 = CARTESIAN_POINT ( 'NONE',  ( 0.000000000000000000, 0.000000000000000000, 0.000000000000000000 ) ) ;
#3 = PERSON_AND_ORGANIZATION ( #158, #157 ) ;
#4 = PERSON_AND_ORGANIZATION ( #158, #157 ) ;
#5 = VERTEX_POINT ( 'NONE', #143 ) ;
#6 = ORIENTED_EDGE ( 'NONE', *, *, #173, .T. ) ;
#7 = ADVANCED_FACE ( 'NONE', ( #107 ), #156, .T. ) ;
#8 = DIRECTION ( 'NONE',  ( -0.000000000000000000, -0.000000000000000000, -1.000000000000000000 ) ) ;
#9 = PRODUCT_DEFINITION_SHAPE ( 'NONE', 'NONE',  #153 ) ;
#10 = LINE ( 'NONE', #97, #44 ) ;
#11 = ADVANCED_FACE ( 'NONE', ( #120 ), #108, .T. ) ;
#12 = PERSON_AND_ORGANIZATION ( #158, #157 ) ;
#13 = AXIS2_PLACEMENT_3D ( 'NONE', #96, #147, #67 ) ;
#14 = PRODUCT_DEFINITION_FORMATION_WITH_SPECIFIED_SOURCE ( 'ANY', '', #134, .NOT_KNOWN. ) ;
#15 =( LENGTH_UNIT ( ) NAMED_UNIT ( * ) SI_UNIT ( .MILLI., .METRE. ) );
#16 = CALENDAR_DATE ( 2022, 6, 4 ) ;
#17 = APPROVAL_DATE_TIME ( #87, #144 ) ;
#18 = APPROVAL_ROLE ( '' ) ;
#19 = APPLICATION_CONTEXT ( 'configuration controlled 3d designs of mechanical parts and assemblies' ) ;
#20 = CARTESIAN_POINT ( 'NONE',  ( 0.000000000000000000, 0.000000000000000000, 4.000000000000000000 ) ) ;
#21 = LOCAL_TIME ( 11, 5, 44.00000000000000000, #128 ) ;
#22 = DIRECTION ( 'NONE',  ( 1.000000000000000000, 0.000000000000000000, 0.000000000000000000 ) ) ;
#23 = APPLICATION_PROTOCOL_DEFINITION ( 'international standard', 'config_control_design', 1994, #59 ) ;
#24 = FACE_OUTER_BOUND ( 'NONE', #48, .T. ) ;
#25 = CIRCLE ( 'NONE', #131, 12.50000000000000000 ) ;
#26 = CALENDAR_DATE ( 2022, 6, 4 ) ;
#27 = PERSON_AND_ORGANIZATION ( #158, #157 ) ;
#28 = PERSON_AND_ORGANIZATION_ROLE ( 'design_supplier' ) ;
#29 = SHAPE_DEFINITION_REPRESENTATION ( #9, #46 ) ;
#30 = AXIS2_PLACEMENT_3D ( 'NONE', #78, #80, #34 ) ;
#31 = ORIENTED_EDGE ( 'NONE', *, *, #172, .F. ) ;
#32 = ORIENTED_EDGE ( 'NONE', *, *, #43, .F. ) ;
#33 = AXIS2_PLACEMENT_3D ( 'NONE', #94, #161, #175 ) ;
#34 = DIRECTION ( 'NONE',  ( -1.000000000000000000, 0.000000000000000000, 0.000000000000000000 ) ) ;
#35 = CYLINDRICAL_SURFACE ( 'NONE', #30, 12.50000000000000000 ) ;
#36 = PERSON_AND_ORGANIZATION ( #158, #157 ) ;
#37 = CC_DESIGN_DATE_AND_TIME_ASSIGNMENT ( #140, #152, ( #153 ) ) ;
#38 = CALENDAR_DATE ( 2022, 6, 4 ) ;
#39 = APPROVAL_ROLE ( '' ) ;
#40 = CC_DESIGN_PERSON_AND_ORGANIZATION_ASSIGNMENT ( #3, #103, ( #153 ) ) ;
#41 = COORDINATED_UNIVERSAL_TIME_OFFSET ( 5, 0, .BEHIND. ) ;
#42 = APPROVAL ( #168, 'UNSPECIFIED' ) ;
#43 = EDGE_CURVE ( 'NONE', #47, #119, #25, .T. ) ;
#44 = VECTOR ( 'NONE', #8, 1000.000000000000000 ) ;
#45 = CC_DESIGN_APPROVAL ( #144, ( #14 ) ) ;
#46 = ADVANCED_BREP_SHAPE_REPRESENTATION ( 'Web Model 19837_19865', ( #90, #13 ), #133 ) ;
#47 = VERTEX_POINT ( 'NONE', #109 ) ;
#48 = EDGE_LOOP ( 'NONE', ( #141, #174 ) ) ;
#49 = ORIENTED_EDGE ( 'NONE', *, *, #56, .T. ) ;
#50 = PRODUCT_RELATED_PRODUCT_CATEGORY ( 'detail', '', ( #134 ) ) ;
#51 = PERSON_AND_ORGANIZATION_ROLE ( 'design_owner' ) ;
#52 = DIRECTION ( 'NONE',  ( -0.000000000000000000, -0.000000000000000000, -1.000000000000000000 ) ) ;
#53 = CARTESIAN_POINT ( 'NONE',  ( 12.50000000000000000, 1.530808498934191521E-15, 4.000000000000000000 ) ) ;
#54 = PERSON_AND_ORGANIZATION ( #158, #157 ) ;
#55 = AXIS2_PLACEMENT_3D ( 'NONE', #148, #135, #22 ) ;
#56 = EDGE_CURVE ( 'NONE', #5, #75, #101, .T. ) ;
#57 = DATE_AND_TIME ( #16, #21 ) ;
#58 = DATE_AND_TIME ( #167, #146 ) ;
#59 = APPLICATION_CONTEXT ( 'configuration controlled 3d designs of mechanical parts and assemblies' ) ;
#60 = EDGE_LOOP ( 'NONE', ( #89, #32, #142, #171 ) ) ;
#61 = APPROVAL_PERSON_ORGANIZATION ( #36, #160, #39 ) ;
#62 = ORIENTED_EDGE ( 'NONE', *, *, #173, .F. ) ;
#63 = DIRECTION ( 'NONE',  ( -1.000000000000000000, 0.000000000000000000, 0.000000000000000000 ) ) ;
#64 = CLOSED_SHELL ( 'NONE', ( #159, #7, #11, #111 ) ) ;
#65 = CARTESIAN_POINT ( 'NONE',  ( -12.50000000000000000, 0.000000000000000000, 0.000000000000000000 ) ) ;
#66 = PLANE ( 'NONE',  #33 ) ;
#67 = DIRECTION ( 'NONE',  ( 1.000000000000000000, 0.000000000000000000, 0.000000000000000000 ) ) ;
#68 = CC_DESIGN_PERSON_AND_ORGANIZATION_ASSIGNMENT ( #12, #51, ( #134 ) ) ;
#69 = APPROVAL_STATUS ( 'not_yet_approved' ) ;
#70 = CC_DESIGN_APPROVAL ( #42, ( #105 ) ) ;
#71 = DIRECTION ( 'NONE',  ( 1.000000000000000000, 0.000000000000000000, 0.000000000000000000 ) ) ;
#72 = COORDINATED_UNIVERSAL_TIME_OFFSET ( 5, 0, .BEHIND. ) ;
#73 = SECURITY_CLASSIFICATION_LEVEL ( 'unclassified' ) ;
#74 = UNCERTAINTY_MEASURE_WITH_UNIT (LENGTH_MEASURE( 1.000000000000000082E-05 ), #15, 'distance_accuracy_value', 'NONE');
#75 = VERTEX_POINT ( 'NONE', #65 ) ;
#76 = DIRECTION ( 'NONE',  ( -0.000000000000000000, -0.000000000000000000, -1.000000000000000000 ) ) ;
#77 = EDGE_CURVE ( 'NONE', #75, #5, #162, .T. ) ;
#78 = CARTESIAN_POINT ( 'NONE',  ( 0.000000000000000000, 0.000000000000000000, 4.000000000000000000 ) ) ;
#79 = LOCAL_TIME ( 11, 5, 44.00000000000000000, #165 ) ;
#80 = DIRECTION ( 'NONE',  ( -0.000000000000000000, -0.000000000000000000, -1.000000000000000000 ) ) ;
#81 = CARTESIAN_POINT ( 'NONE',  ( 0.000000000000000000, 0.000000000000000000, 0.000000000000000000 ) ) ;
#82 = DIRECTION ( 'NONE',  ( 1.000000000000000000, 0.000000000000000000, 0.000000000000000000 ) ) ;
#83 = CC_DESIGN_APPROVAL ( #160, ( #153 ) ) ;
#84 = LINE ( 'NONE', #137, #124 ) ;
#85 = LOCAL_TIME ( 11, 5, 44.00000000000000000, #41 ) ;
#86 = PERSON_AND_ORGANIZATION_ROLE ( 'classification_officer' ) ;
#87 = DATE_AND_TIME ( #38, #79 ) ;
#88 = APPROVAL_ROLE ( '' ) ;
#89 = ORIENTED_EDGE ( 'NONE', *, *, #99, .F. ) ;
#90 = MANIFOLD_SOLID_BREP ( 'Boss-Extrude1', #64 ) ;
#91 = CC_DESIGN_PERSON_AND_ORGANIZATION_ASSIGNMENT ( #154, #138, ( #14 ) ) ;
#92 = CARTESIAN_POINT ( 'NONE',  ( 0.000000000000000000, 0.000000000000000000, 4.000000000000000000 ) ) ;
#93 = AXIS2_PLACEMENT_3D ( 'NONE', #81, #136, #71 ) ;
#94 = CARTESIAN_POINT ( 'NONE',  ( 0.000000000000000000, 0.000000000000000000, 0.000000000000000000 ) ) ;
#95 = LOCAL_TIME ( 11, 5, 44.00000000000000000, #151 ) ;
#96 = CARTESIAN_POINT ( 'NONE',  ( 0.000000000000000000, 0.000000000000000000, 0.000000000000000000 ) ) ;
#97 = CARTESIAN_POINT ( 'NONE',  ( -12.50000000000000000, 0.000000000000000000, 4.000000000000000000 ) ) ;
#98 = CC_DESIGN_SECURITY_CLASSIFICATION ( #105, ( #14 ) ) ;
#99 = EDGE_CURVE ( 'NONE', #119, #5, #84, .T. ) ;
#100 = CALENDAR_DATE ( 2022, 6, 4 ) ;
#101 = CIRCLE ( 'NONE', #93, 12.50000000000000000 ) ;
#102 = APPROVAL_DATE_TIME ( #115, #160 ) ;
#103 = PERSON_AND_ORGANIZATION_ROLE ( 'creator' ) ;
#104 = CC_DESIGN_DATE_AND_TIME_ASSIGNMENT ( #57, #117, ( #105 ) ) ;
#105 = SECURITY_CLASSIFICATION ( '', '', #73 ) ;
#106 = ORIENTED_EDGE ( 'NONE', *, *, #43, .T. ) ;
#107 = FACE_OUTER_BOUND ( 'NONE', #60, .T. ) ;
#108 = PLANE ( 'NONE',  #166 ) ;
#109 = CARTESIAN_POINT ( 'NONE',  ( -12.50000000000000000, 0.000000000000000000, 4.000000000000000000 ) ) ;
#110 = APPLICATION_PROTOCOL_DEFINITION ( 'international standard', 'config_control_design', 1994, #19 ) ;
#111 = ADVANCED_FACE ( 'NONE', ( #24 ), #66, .F. ) ;
#112 = CIRCLE ( 'NONE', #55, 12.50000000000000000 ) ;
#113 =( NAMED_UNIT ( * ) PLANE_ANGLE_UNIT ( ) SI_UNIT ( $, .RADIAN. ) );
#114 = FACE_OUTER_BOUND ( 'NONE', #121, .T. ) ;
#115 = DATE_AND_TIME ( #100, #85 ) ;
#116 = AXIS2_PLACEMENT_3D ( 'NONE', #2, #163, #82 ) ;
#117 = DATE_TIME_ROLE ( 'classification_date' ) ;
#118 = CC_DESIGN_PERSON_AND_ORGANIZATION_ASSIGNMENT ( #4, #86, ( #105 ) ) ;
#119 = VERTEX_POINT ( 'NONE', #53 ) ;
#120 = FACE_OUTER_BOUND ( 'NONE', #129, .T. ) ;
#121 = EDGE_LOOP ( 'NONE', ( #62, #169, #49, #31 ) ) ;
#122 = CARTESIAN_POINT ( 'NONE',  ( 0.000000000000000000, 0.000000000000000000, 4.000000000000000000 ) ) ;
#123 = MECHANICAL_CONTEXT ( 'NONE', #59, 'mechanical' ) ;
#124 = VECTOR ( 'NONE', #52, 1000.000000000000000 ) ;
#125 = APPROVAL_PERSON_ORGANIZATION ( #54, #42, #88 ) ;
#126 = DIRECTION ( 'NONE',  ( 1.000000000000000000, 0.000000000000000000, -0.000000000000000000 ) ) ;
#127 = PERSON_AND_ORGANIZATION ( #158, #157 ) ;
#128 = COORDINATED_UNIVERSAL_TIME_OFFSET ( 5, 0, .BEHIND. ) ;
#129 = EDGE_LOOP ( 'NONE', ( #106, #6 ) ) ;
#130 = DESIGN_CONTEXT ( 'detailed design', #19, 'design' ) ;
#131 = AXIS2_PLACEMENT_3D ( 'NONE', #20, #1, #132 ) ;
#132 = DIRECTION ( 'NONE',  ( 1.000000000000000000, 0.000000000000000000, 0.000000000000000000 ) ) ;
#133 =( GEOMETRIC_REPRESENTATION_CONTEXT ( 3 ) GLOBAL_UNCERTAINTY_ASSIGNED_CONTEXT ( ( #74 ) ) GLOBAL_UNIT_ASSIGNED_CONTEXT ( ( #15, #113, #145 ) ) REPRESENTATION_CONTEXT ( 'NONE', 'WORKASPACE' ) );
#134 = PRODUCT ( 'Web Model 19837_19865', 'Web Model 19837_19865', '', ( #123 ) ) ;
#135 = DIRECTION ( 'NONE',  ( 0.000000000000000000, 0.000000000000000000, 1.000000000000000000 ) ) ;
#136 = DIRECTION ( 'NONE',  ( 0.000000000000000000, 0.000000000000000000, 1.000000000000000000 ) ) ;
#137 = CARTESIAN_POINT ( 'NONE',  ( 12.50000000000000000, 1.530808498934191521E-15, 4.000000000000000000 ) ) ;
#138 = PERSON_AND_ORGANIZATION_ROLE ( 'creator' ) ;
#139 = APPROVAL_STATUS ( 'not_yet_approved' ) ;
#140 = DATE_AND_TIME ( #26, #95 ) ;
#141 = ORIENTED_EDGE ( 'NONE', *, *, #77, .F. ) ;
#142 = ORIENTED_EDGE ( 'NONE', *, *, #172, .T. ) ;
#143 = CARTESIAN_POINT ( 'NONE',  ( 12.50000000000000000, 1.530808498934191521E-15, 0.000000000000000000 ) ) ;
#144 = APPROVAL ( #139, 'UNSPECIFIED' ) ;
#145 =( NAMED_UNIT ( * ) SI_UNIT ( $, .STERADIAN. ) SOLID_ANGLE_UNIT ( ) );
#146 = LOCAL_TIME ( 11, 5, 44.00000000000000000, #72 ) ;
#147 = DIRECTION ( 'NONE',  ( 0.000000000000000000, 0.000000000000000000, 1.000000000000000000 ) ) ;
#148 = CARTESIAN_POINT ( 'NONE',  ( 0.000000000000000000, 0.000000000000000000, 4.000000000000000000 ) ) ;
#149 = AXIS2_PLACEMENT_3D ( 'NONE', #92, #76, #63 ) ;
#150 = DIRECTION ( 'NONE',  ( 0.000000000000000000, 0.000000000000000000, 1.000000000000000000 ) ) ;
#151 = COORDINATED_UNIVERSAL_TIME_OFFSET ( 5, 0, .BEHIND. ) ;
#152 = DATE_TIME_ROLE ( 'creation_date' ) ;
#153 = PRODUCT_DEFINITION ( 'UNKNOWN', '', #14, #130 ) ;
#154 = PERSON_AND_ORGANIZATION ( #158, #157 ) ;
#155 = APPROVAL_PERSON_ORGANIZATION ( #127, #144, #18 ) ;
#156 = CYLINDRICAL_SURFACE ( 'NONE', #149, 12.50000000000000000 ) ;
#157 = ORGANIZATION ( 'UNSPECIFIED', 'UNSPECIFIED', '' ) ;
#158 = PERSON ( 'UNSPECIFIED', 'UNSPECIFIED', 'UNSPECIFIED', ('UNSPECIFIED'), ('UNSPECIFIED'), ('UNSPECIFIED') ) ;
#159 = ADVANCED_FACE ( 'NONE', ( #114 ), #35, .T. ) ;
#160 = APPROVAL ( #69, 'UNSPECIFIED' ) ;
#161 = DIRECTION ( 'NONE',  ( 0.000000000000000000, 0.000000000000000000, 1.000000000000000000 ) ) ;
#162 = CIRCLE ( 'NONE', #116, 12.50000000000000000 ) ;
#163 = DIRECTION ( 'NONE',  ( 0.000000000000000000, 0.000000000000000000, 1.000000000000000000 ) ) ;
#164 = APPROVAL_DATE_TIME ( #58, #42 ) ;
#165 = COORDINATED_UNIVERSAL_TIME_OFFSET ( 5, 0, .BEHIND. ) ;
#166 = AXIS2_PLACEMENT_3D ( 'NONE', #122, #150, #126 ) ;
#167 = CALENDAR_DATE ( 2022, 6, 4 ) ;
#168 = APPROVAL_STATUS ( 'not_yet_approved' ) ;
#169 = ORIENTED_EDGE ( 'NONE', *, *, #99, .T. ) ;
#170 = CC_DESIGN_PERSON_AND_ORGANIZATION_ASSIGNMENT ( #27, #28, ( #14 ) ) ;
#171 = ORIENTED_EDGE ( 'NONE', *, *, #77, .T. ) ;
#172 = EDGE_CURVE ( 'NONE', #47, #75, #10, .T. ) ;
#173 = EDGE_CURVE ( 'NONE', #119, #47, #112, .T. ) ;
#174 = ORIENTED_EDGE ( 'NONE', *, *, #56, .F. ) ;
#175 = DIRECTION ( 'NONE',  ( 1.000000000000000000, 0.000000000000000000, -0.000000000000000000 ) ) ;
ENDSEC;
END-ISO-10303-21;
