ISO-10303-21;
HEADER;
FILE_DESCRIPTION (( 'STEP AP203' ),
    '1' );
FILE_NAME ('4317-E0W.STEP',
    '2015-06-17T20:44:29',
    ( 'admin' ),
    ( '' ),
    'SwSTEP 2.0',
    'SolidWorks 2014',
    '' );
FILE_SCHEMA (( 'CONFIG_CONTROL_DESIGN' ));
ENDSEC;

DATA;
#1 = AXIS2_PLACEMENT_3D ( 'NONE', #109, #99, #261 ) ;
#2 = CARTESIAN_POINT ( 'NONE',  ( 0.0000000000000000000, 0.0000000000000000000, 27.29999999999999700 ) ) ;
#3 = CIRCLE ( 'NONE', #81, 12.47293809500223800 ) ;
#4 = EDGE_LOOP ( 'NONE', ( #327, #213, #257, #156 ) ) ;
#5 = LOCAL_TIME ( 16, 44, 29.00000000000000000, #314 ) ;
#6 = PERSON_AND_ORGANIZATION ( #284, #49 ) ;
#7 = PERSON_AND_ORGANIZATION_ROLE ( 'design_owner' ) ;
#8 = APPROVAL ( #310, 'UNSPECIFIED' ) ;
#9 = CARTESIAN_POINT ( 'NONE',  ( -12.47293809500224000, 0.0000000000000000000, 1.080024934418961200 ) ) ;
#10 = CC_DESIGN_DATE_AND_TIME_ASSIGNMENT ( #313, #83, ( #167 ) ) ;
#11 = AXIS2_PLACEMENT_3D ( 'NONE', #45, #140, #318 ) ;
#12 = CIRCLE ( 'NONE', #237, 31.00000000000000000 ) ;
#13 = CIRCLE ( 'NONE', #244, 12.47293809500223800 ) ;
#14 = CARTESIAN_POINT ( 'NONE',  ( 0.0000000000000000000, 0.0000000000000000000, -27.29999999999999700 ) ) ;
#15 = EDGE_LOOP ( 'NONE', ( #231, #26, #319, #130, #122 ) ) ;
#16 = ADVANCED_FACE ( 'NONE', ( #17 ), #191, .T. ) ;
#17 = FACE_OUTER_BOUND ( 'NONE', #28, .T. ) ;
#18 = FACE_OUTER_BOUND ( 'NONE', #93, .T. ) ;
#19 = CALENDAR_DATE ( 2015, 17, 6 ) ;
#20 = ORIENTED_EDGE ( 'NONE', *, *, #149, .F. ) ;
#21 = PERSON_AND_ORGANIZATION ( #284, #49 ) ;
#22 = DATE_AND_TIME ( #19, #88 ) ;
#23 = DIRECTION ( 'NONE',  ( 0.0000000000000000000, 0.0000000000000000000, -1.000000000000000000 ) ) ;
#24 = AXIS2_PLACEMENT_3D ( 'NONE', #163, #238, #76 ) ;
#25 = PRODUCT_DEFINITION_FORMATION_WITH_SPECIFIED_SOURCE ( 'ANY', '', #273, .NOT_KNOWN. ) ;
#26 = ORIENTED_EDGE ( 'NONE', *, *, #164, .F. ) ;
#27 = LINE ( 'NONE', #336, #186 ) ;
#28 = EDGE_LOOP ( 'NONE', ( #293, #362, #143, #345 ) ) ;
#29 = LOCAL_TIME ( 16, 44, 29.00000000000000000, #126 ) ;
#30 = PERSON_AND_ORGANIZATION_ROLE ( 'creator' ) ;
#31 = SECURITY_CLASSIFICATION ( '', '', #242 ) ;
#32 = CARTESIAN_POINT ( 'NONE',  ( 12.69999999999999900, 0.0000000000000000000, -0.7291442586228186200 ) ) ;
#33 = ORIENTED_EDGE ( 'NONE', *, *, #184, .F. ) ;
#34 = FACE_OUTER_BOUND ( 'NONE', #175, .T. ) ;
#35 = CARTESIAN_POINT ( 'NONE',  ( 0.0000000000000000000, 0.0000000000000000000, 0.0000000000000000000 ) ) ;
#36 = AXIS2_PLACEMENT_3D ( 'NONE', #98, #286, #205 ) ;
#37 = CARTESIAN_POINT ( 'NONE',  ( -12.69999999999999900, 1.555301434917138400E-015, 3.700000000000000200 ) ) ;
#38 = AXIS2_PLACEMENT_3D ( 'NONE', #276, #329, #117 ) ;
#39 = CARTESIAN_POINT ( 'NONE',  ( 12.69999999999999900, 0.0000000000000000000, -0.7291442586228186200 ) ) ;
#40 = DIRECTION ( 'NONE',  ( -0.0000000000000000000, -0.0000000000000000000, 1.000000000000000000 ) ) ;
#41 = ADVANCED_FACE ( 'NONE', ( #157 ), #300, .T. ) ;
#42 = AXIS2_PLACEMENT_3D ( 'NONE', #223, #72, #227 ) ;
#43 = CARTESIAN_POINT ( 'NONE',  ( 0.0000000000000000000, 1.898202538678397600E-015, 3.700000000000002000 ) ) ;
#44 = DIRECTION ( 'NONE',  ( -1.000000000000000000, 0.0000000000000000000, 0.0000000000000000000 ) ) ;
#45 = CARTESIAN_POINT ( 'NONE',  ( 0.0000000000000000000, 0.0000000000000000000, 1.080024934418961200 ) ) ;
#46 = AXIS2_PLACEMENT_3D ( 'NONE', #77, #139, #325 ) ;
#47 = DIRECTION ( 'NONE',  ( -1.000000000000000000, 0.0000000000000000000, 0.0000000000000000000 ) ) ;
#48 = DIRECTION ( 'NONE',  ( 0.5432874840474288800, 6.653352783555025600E-017, -0.8395467287038969100 ) ) ;
#49 = ORGANIZATION ( 'UNSPECIFIED', 'UNSPECIFIED', '' ) ;
#50 = CARTESIAN_POINT ( 'NONE',  ( 12.47293809500223800, 1.541397903158948100E-015, 1.080024934418957600 ) ) ;
#51 = AXIS2_PLACEMENT_3D ( 'NONE', #35, #344, #70 ) ;
#52 = CIRCLE ( 'NONE', #46, 12.47293809500223500 ) ;
#53 = ORIENTED_EDGE ( 'NONE', *, *, #108, .T. ) ;
#54 = DIRECTION ( 'NONE',  ( 1.000000000000000000, 0.0000000000000000000, 0.0000000000000000000 ) ) ;
#55 = AXIS2_PLACEMENT_3D ( 'NONE', #97, #23, #121 ) ;
#56 = VERTEX_POINT ( 'NONE', #43 ) ;
#57 = CC_DESIGN_PERSON_AND_ORGANIZATION_ASSIGNMENT ( #6, #298, ( #31 ) ) ;
#58 = ORIENTED_EDGE ( 'NONE', *, *, #147, .F. ) ;
#59 = FACE_OUTER_BOUND ( 'NONE', #15, .T. ) ;
#60 = ORIENTED_EDGE ( 'NONE', *, *, #85, .T. ) ;
#61 = CIRCLE ( 'NONE', #36, 12.47293809500223800 ) ;
#62 = DIRECTION ( 'NONE',  ( -0.0000000000000000000, -0.0000000000000000000, 1.000000000000000000 ) ) ;
#63 = CARTESIAN_POINT ( 'NONE',  ( 12.69999999999999900, 0.0000000000000000000, 3.700000000000000200 ) ) ;
#64 = ORIENTED_EDGE ( 'NONE', *, *, #141, .T. ) ;
#65 = AXIS2_PLACEMENT_3D ( 'NONE', #82, #152, #350 ) ;
#66 = APPROVAL ( #367, 'UNSPECIFIED' ) ;
#67 = DIRECTION ( 'NONE',  ( -1.000000000000000000, 0.0000000000000000000, 0.0000000000000000000 ) ) ;
#68 = AXIS2_PLACEMENT_3D ( 'NONE', #2, #44, #239 ) ;
#69 = VERTEX_POINT ( 'NONE', #365 ) ;
#70 = DIRECTION ( 'NONE',  ( 1.000000000000000000, 0.0000000000000000000, 0.0000000000000000000 ) ) ;
#71 = SPHERICAL_SURFACE ( 'NONE', #291, 31.00000000000000000 ) ;
#72 = DIRECTION ( 'NONE',  ( -0.0000000000000000000, -0.0000000000000000000, 1.000000000000000000 ) ) ;
#73 = CARTESIAN_POINT ( 'NONE',  ( 0.0000000000000000000, 0.0000000000000000000, -1.080024934418964700 ) ) ;
#74 = ADVANCED_FACE ( 'NONE', ( #136 ), #246, .T. ) ;
#75 = CARTESIAN_POINT ( 'NONE',  ( 0.0000000000000000000, 0.0000000000000000000, 3.700000000000000200 ) ) ;
#76 = DIRECTION ( 'NONE',  ( 0.0000000000000000000, 0.0000000000000000000, -1.000000000000000000 ) ) ;
#77 = CARTESIAN_POINT ( 'NONE',  ( 0.0000000000000000000, 0.0000000000000000000, -1.080024934418964700 ) ) ;
#78 = CC_DESIGN_APPROVAL ( #8, ( #167 ) ) ;
#79 = VERTEX_POINT ( 'NONE', #253 ) ;
#80 = CIRCLE ( 'NONE', #263, 31.00000000000000000 ) ;
#81 = AXIS2_PLACEMENT_3D ( 'NONE', #295, #62, #339 ) ;
#82 = CARTESIAN_POINT ( 'NONE',  ( 0.0000000000000000000, 0.0000000000000000000, -0.7291442586228186200 ) ) ;
#83 = DATE_TIME_ROLE ( 'creation_date' ) ;
#84 = CALENDAR_DATE ( 2015, 17, 6 ) ;
#85 = EDGE_CURVE ( 'NONE', #178, #160, #111, .T. ) ;
#86 = CARTESIAN_POINT ( 'NONE',  ( 12.69999999999999900, 0.0000000000000000000, 0.7291442586228256100 ) ) ;
#87 = DIRECTION ( 'NONE',  ( -0.5432874840474288800, 0.0000000000000000000, -0.8395467287038969100 ) ) ;
#88 = LOCAL_TIME ( 16, 44, 29.00000000000000000, #358 ) ;
#89 = DATE_TIME_ROLE ( 'classification_date' ) ;
#90 = DIRECTION ( 'NONE',  ( -1.000000000000000000, 1.224646799147353200E-016, 0.0000000000000000000 ) ) ;
#91 = ORIENTED_EDGE ( 'NONE', *, *, #180, .F. ) ;
#92 = CARTESIAN_POINT ( 'NONE',  ( 0.0000000000000000000, 0.0000000000000000000, 3.700000000000000200 ) ) ;
#93 = EDGE_LOOP ( 'NONE', ( #20, #187, #188, #165, #198 ) ) ;
#94 = DIRECTION ( 'NONE',  ( -1.000000000000000000, 0.0000000000000000000, 0.0000000000000000000 ) ) ;
#95 = CIRCLE ( 'NONE', #256, 31.00000000000000000 ) ;
#96 = CLOSED_SHELL ( 'NONE', ( #129, #41, #330, #74, #297, #234, #177, #16, #154, #271 ) ) ;
#97 = CARTESIAN_POINT ( 'NONE',  ( 0.0000000000000000000, 0.0000000000000000000, -1.080024934418964700 ) ) ;
#98 = CARTESIAN_POINT ( 'NONE',  ( 0.0000000000000000000, 0.0000000000000000000, 1.080024934418957600 ) ) ;
#99 = DIRECTION ( 'NONE',  ( -0.0000000000000000000, -0.0000000000000000000, 1.000000000000000000 ) ) ;
#100 = DIRECTION ( 'NONE',  ( 0.5432874840474292100, 0.0000000000000000000, 0.8395467287038966800 ) ) ;
#101 = CIRCLE ( 'NONE', #24, 31.00000000000000000 ) ;
#102 = CARTESIAN_POINT ( 'NONE',  ( 0.0000000000000000000, 0.0000000000000000000, 1.080024934418961200 ) ) ;
#103 = DIRECTION ( 'NONE',  ( -1.224646799147353200E-016, -1.000000000000000000, 0.0000000000000000000 ) ) ;
#104 = EDGE_LOOP ( 'NONE', ( #91, #151, #292, #282, #192 ) ) ;
#105 = CC_DESIGN_SECURITY_CLASSIFICATION ( #31, ( #25 ) ) ;
#106 = DIRECTION ( 'NONE',  ( -1.000000000000000000, 0.0000000000000000000, 0.0000000000000000000 ) ) ;
#107 = DIRECTION ( 'NONE',  ( -0.0000000000000000000, -0.0000000000000000000, 1.000000000000000000 ) ) ;
#108 = EDGE_CURVE ( 'NONE', #118, #160, #170, .T. ) ;
#109 = CARTESIAN_POINT ( 'NONE',  ( 0.0000000000000000000, 0.0000000000000000000, 1.080024934418957600 ) ) ;
#110 = ORIENTED_EDGE ( 'NONE', *, *, #108, .F. ) ;
#111 = CIRCLE ( 'NONE', #194, 12.69999999999999900 ) ;
#112 = COORDINATED_UNIVERSAL_TIME_OFFSET ( 5, 0, .BEHIND. ) ;
#113 = ORIENTED_EDGE ( 'NONE', *, *, #262, .F. ) ;
#114 = EDGE_CURVE ( 'NONE', #326, #178, #208, .T. ) ;
#115 = VERTEX_POINT ( 'NONE', #212 ) ;
#116 = CARTESIAN_POINT ( 'NONE',  ( 0.0000000000000000000, 0.0000000000000000000, -27.29999999999999700 ) ) ;
#117 = DIRECTION ( 'NONE',  ( -1.000000000000000000, 0.0000000000000000000, 0.0000000000000000000 ) ) ;
#118 = VERTEX_POINT ( 'NONE', #39 ) ;
#119 = CIRCLE ( 'NONE', #38, 12.69999999999999900 ) ;
#120 = EDGE_CURVE ( 'NONE', #118, #312, #127, .T. ) ;
#121 = DIRECTION ( 'NONE',  ( 1.000000000000000000, 0.0000000000000000000, 0.0000000000000000000 ) ) ;
#122 = ORIENTED_EDGE ( 'NONE', *, *, #210, .F. ) ;
#123 = MECHANICAL_CONTEXT ( 'NONE', #328, 'mechanical' ) ;
#124 = CONICAL_SURFACE ( 'NONE', #343, 12.47293809500224000, 0.5743479550940614500 ) ;
#125 = CARTESIAN_POINT ( 'NONE',  ( 0.0000000000000000000, 0.0000000000000000000, -0.7291442586228186200 ) ) ;
#126 = COORDINATED_UNIVERSAL_TIME_OFFSET ( 5, 0, .BEHIND. ) ;
#127 = CIRCLE ( 'NONE', #288, 12.69999999999999900 ) ;
#128 = DIRECTION ( 'NONE',  ( 1.000000000000000000, 0.0000000000000000000, 0.0000000000000000000 ) ) ;
#129 = ADVANCED_FACE ( 'NONE', ( #18 ), #260, .T. ) ;
#130 = ORIENTED_EDGE ( 'NONE', *, *, #114, .T. ) ;
#131 = CC_DESIGN_PERSON_AND_ORGANIZATION_ASSIGNMENT ( #21, #7, ( #273 ) ) ;
#132 = DIRECTION ( 'NONE',  ( 1.000000000000000000, -0.0000000000000000000, 0.0000000000000000000 ) ) ;
#133 = ORIENTED_EDGE ( 'NONE', *, *, #229, .F. ) ;
#134 = SHAPE_DEFINITION_REPRESENTATION ( #363, #338 ) ;
#135 = ORIENTED_EDGE ( 'NONE', *, *, #196, .T. ) ;
#136 = FACE_OUTER_BOUND ( 'NONE', #174, .T. ) ;
#137 = CARTESIAN_POINT ( 'NONE',  ( -12.69999999999999900, 1.555301434917138400E-015, 0.7291442586228256100 ) ) ;
#138 = DIRECTION ( 'NONE',  ( -1.000000000000000000, 0.0000000000000000000, 0.0000000000000000000 ) ) ;
#139 = DIRECTION ( 'NONE',  ( 0.0000000000000000000, 0.0000000000000000000, -1.000000000000000000 ) ) ;
#140 = DIRECTION ( 'NONE',  ( 0.0000000000000000000, 0.0000000000000000000, -1.000000000000000000 ) ) ;
#141 = EDGE_CURVE ( 'NONE', #69, #340, #203, .T. ) ;
#142 = VECTOR ( 'NONE', #348, 1000.000000000000000 ) ;
#143 = ORIENTED_EDGE ( 'NONE', *, *, #255, .T. ) ;
#144 = PERSON_AND_ORGANIZATION ( #284, #49 ) ;
#145 = DIRECTION ( 'NONE',  ( 1.000000000000000000, 0.0000000000000000000, 0.0000000000000000000 ) ) ;
#146 = EDGE_CURVE ( 'NONE', #79, #69, #224, .T. ) ;
#147 = EDGE_CURVE ( 'NONE', #340, #268, #52, .T. ) ;
#148 = FACE_OUTER_BOUND ( 'NONE', #104, .T. ) ;
#149 = EDGE_CURVE ( 'NONE', #241, #115, #61, .T. ) ;
#150 = ORIENTED_EDGE ( 'NONE', *, *, #120, .F. ) ;
#151 = ORIENTED_EDGE ( 'NONE', *, *, #141, .F. ) ;
#152 = DIRECTION ( 'NONE',  ( -0.0000000000000000000, -0.0000000000000000000, 1.000000000000000000 ) ) ;
#153 = APPROVAL ( #158, 'UNSPECIFIED' ) ;
#154 = ADVANCED_FACE ( 'NONE', ( #148 ), #303, .T. ) ;
#155 = PERSON_AND_ORGANIZATION ( #284, #49 ) ;
#156 = ORIENTED_EDGE ( 'NONE', *, *, #249, .F. ) ;
#157 = FACE_OUTER_BOUND ( 'NONE', #254, .T. ) ;
#158 = APPROVAL_STATUS ( 'not_yet_approved' ) ;
#159 = CARTESIAN_POINT ( 'NONE',  ( -1.527494371400758100E-015, -12.47293809500224500, 1.080024934418959400 ) ) ;
#160 = VERTEX_POINT ( 'NONE', #86 ) ;
#161 = AXIS2_PLACEMENT_3D ( 'NONE', #125, #40, #258 ) ;
#162 = COORDINATED_UNIVERSAL_TIME_OFFSET ( 5, 0, .BEHIND. ) ;
#163 = CARTESIAN_POINT ( 'NONE',  ( 0.0000000000000000000, 0.0000000000000000000, 27.29999999999999700 ) ) ;
#164 = EDGE_CURVE ( 'NONE', #219, #241, #321, .T. ) ;
#165 = ORIENTED_EDGE ( 'NONE', *, *, #114, .F. ) ;
#166 = AXIS2_PLACEMENT_3D ( 'NONE', #73, #322, #145 ) ;
#167 = PRODUCT_DEFINITION ( 'UNKNOWN', '', #25, #331 ) ;
#168 = DIRECTION ( 'NONE',  ( -0.0000000000000000000, -0.0000000000000000000, 1.000000000000000000 ) ) ;
#169 = AXIS2_PLACEMENT_3D ( 'NONE', #252, #67, #290 ) ;
#170 = LINE ( 'NONE', #63, #269 ) ;
#171 = AXIS2_PLACEMENT_3D ( 'NONE', #176, #106, #324 ) ;
#172 = ORIENTED_EDGE ( 'NONE', *, *, #201, .T. ) ;
#173 = DIRECTION ( 'NONE',  ( -0.0000000000000000000, -0.0000000000000000000, 1.000000000000000000 ) ) ;
#174 = EDGE_LOOP ( 'NONE', ( #206, #185, #60, #110 ) ) ;
#175 = EDGE_LOOP ( 'NONE', ( #334, #352, #228, #285 ) ) ;
#176 = CARTESIAN_POINT ( 'NONE',  ( 0.0000000000000000000, 0.0000000000000000000, -27.29999999999999700 ) ) ;
#177 = ADVANCED_FACE ( 'NONE', ( #190 ), #280, .T. ) ;
#178 = VERTEX_POINT ( 'NONE', #137 ) ;
#179 = VECTOR ( 'NONE', #87, 999.9999999999998900 ) ;
#180 = EDGE_CURVE ( 'NONE', #340, #312, #266, .T. ) ;
#181 =( LENGTH_UNIT ( ) NAMED_UNIT ( * ) SI_UNIT ( .MILLI., .METRE. ) );
#182 = SPHERICAL_SURFACE ( 'NONE', #171, 31.00000000000000000 ) ;
#183 = APPROVAL_ROLE ( '' ) ;
#184 = EDGE_CURVE ( 'NONE', #333, #268, #101, .T. ) ;
#185 = ORIENTED_EDGE ( 'NONE', *, *, #262, .T. ) ;
#186 = VECTOR ( 'NONE', #48, 999.9999999999998900 ) ;
#187 = ORIENTED_EDGE ( 'NONE', *, *, #281, .T. ) ;
#188 = ORIENTED_EDGE ( 'NONE', *, *, #85, .F. ) ;
#189 = CARTESIAN_POINT ( 'NONE',  ( 0.0000000000000000000, 0.0000000000000000000, -0.7291442586228186200 ) ) ;
#190 = FACE_OUTER_BOUND ( 'NONE', #197, .T. ) ;
#191 = SPHERICAL_SURFACE ( 'NONE', #68, 31.00000000000000000 ) ;
#192 = ORIENTED_EDGE ( 'NONE', *, *, #196, .F. ) ;
#193 = APPROVAL_PERSON_ORGANIZATION ( #243, #66, #304 ) ;
#194 = AXIS2_PLACEMENT_3D ( 'NONE', #316, #299, #47 ) ;
#195 = PRODUCT_RELATED_PRODUCT_CATEGORY ( 'detail', '', ( #273 ) ) ;
#196 = EDGE_CURVE ( 'NONE', #312, #118, #307, .T. ) ;
#197 = EDGE_LOOP ( 'NONE', ( #113, #135, #53, #226 ) ) ;
#198 = ORIENTED_EDGE ( 'NONE', *, *, #315, .F. ) ;
#199 = VECTOR ( 'NONE', #100, 1000.000000000000100 ) ;
#200 = EDGE_CURVE ( 'NONE', #326, #219, #13, .T. ) ;
#201 = EDGE_CURVE ( 'NONE', #333, #69, #95, .T. ) ;
#202 = APPROVAL_PERSON_ORGANIZATION ( #354, #153, #183 ) ;
#203 = CIRCLE ( 'NONE', #166, 12.47293809500223500 ) ;
#204 = APPLICATION_CONTEXT ( 'configuration controlled 3d designs of mechanical parts and assemblies' ) ;
#205 = DIRECTION ( 'NONE',  ( -1.000000000000000000, 0.0000000000000000000, 0.0000000000000000000 ) ) ;
#206 = ORIENTED_EDGE ( 'NONE', *, *, #120, .T. ) ;
#207 = EDGE_CURVE ( 'NONE', #219, #56, #80, .T. ) ;
#208 = LINE ( 'NONE', #9, #179 ) ;
#209 = DATE_AND_TIME ( #216, #270 ) ;
#210 = EDGE_CURVE ( 'NONE', #160, #178, #119, .T. ) ;
#211 = APPLICATION_PROTOCOL_DEFINITION ( 'international standard', 'config_control_design', 1994, #328 ) ;
#212 = CARTESIAN_POINT ( 'NONE',  ( 0.0000000000000000000, 12.47293809500224500, 1.080024934418959400 ) ) ;
#213 = ORIENTED_EDGE ( 'NONE', *, *, #200, .T. ) ;
#214 = DIRECTION ( 'NONE',  ( -1.000000000000000000, 1.224646799147353200E-016, 0.0000000000000000000 ) ) ;
#215 = DATE_AND_TIME ( #235, #29 ) ;
#216 = CALENDAR_DATE ( 2015, 17, 6 ) ;
#217 = CC_DESIGN_DATE_AND_TIME_ASSIGNMENT ( #209, #89, ( #31 ) ) ;
#218 = CC_DESIGN_APPROVAL ( #66, ( #25 ) ) ;
#219 = VERTEX_POINT ( 'NONE', #159 ) ;
#220 = LINE ( 'NONE', #37, #142 ) ;
#221 = PERSON_AND_ORGANIZATION ( #284, #49 ) ;
#222 = LINE ( 'NONE', #32, #199 ) ;
#223 = CARTESIAN_POINT ( 'NONE',  ( 0.0000000000000000000, 0.0000000000000000000, -0.7291442586228186200 ) ) ;
#224 = CIRCLE ( 'NONE', #55, 12.47293809500223500 ) ;
#225 = CC_DESIGN_PERSON_AND_ORGANIZATION_ASSIGNMENT ( #247, #347, ( #25 ) ) ;
#226 = ORIENTED_EDGE ( 'NONE', *, *, #210, .T. ) ;
#227 = DIRECTION ( 'NONE',  ( 1.000000000000000000, 0.0000000000000000000, 0.0000000000000000000 ) ) ;
#228 = ORIENTED_EDGE ( 'NONE', *, *, #149, .T. ) ;
#229 = EDGE_CURVE ( 'NONE', #79, #118, #222, .T. ) ;
#230 = CC_DESIGN_PERSON_AND_ORGANIZATION_ASSIGNMENT ( #144, #364, ( #25 ) ) ;
#231 = ORIENTED_EDGE ( 'NONE', *, *, #281, .F. ) ;
#232 = CARTESIAN_POINT ( 'NONE',  ( -12.47293809500223800, 0.0000000000000000000, 1.080024934418957600 ) ) ;
#233 = FACE_OUTER_BOUND ( 'NONE', #361, .T. ) ;
#234 = ADVANCED_FACE ( 'NONE', ( #34 ), #71, .T. ) ;
#235 = CALENDAR_DATE ( 2015, 17, 6 ) ;
#236 = CARTESIAN_POINT ( 'NONE',  ( 0.0000000000000000000, 1.898202538678397600E-015, -3.700000000000002000 ) ) ;
#237 = AXIS2_PLACEMENT_3D ( 'NONE', #14, #132, #277 ) ;
#238 = DIRECTION ( 'NONE',  ( 1.000000000000000000, 0.0000000000000000000, 0.0000000000000000000 ) ) ;
#239 = DIRECTION ( 'NONE',  ( 0.0000000000000000000, 1.000000000000000000, 0.0000000000000000000 ) ) ;
#240 = DIRECTION ( 'NONE',  ( 0.0000000000000000000, 0.0000000000000000000, -1.000000000000000000 ) ) ;
#241 = VERTEX_POINT ( 'NONE', #50 ) ;
#242 = SECURITY_CLASSIFICATION_LEVEL ( 'unclassified' ) ;
#243 = PERSON_AND_ORGANIZATION ( #284, #49 ) ;
#244 = AXIS2_PLACEMENT_3D ( 'NONE', #306, #107, #332 ) ;
#245 = APPLICATION_PROTOCOL_DEFINITION ( 'international standard', 'config_control_design', 1994, #204 ) ;
#246 = CYLINDRICAL_SURFACE ( 'NONE', #301, 12.69999999999999900 ) ;
#247 = PERSON_AND_ORGANIZATION ( #284, #49 ) ;
#248 = CARTESIAN_POINT ( 'NONE',  ( 0.0000000000000000000, 0.0000000000000000000, 27.29999999999999700 ) ) ;
#249 = EDGE_CURVE ( 'NONE', #115, #56, #12, .T. ) ;
#250 = UNCERTAINTY_MEASURE_WITH_UNIT (LENGTH_MEASURE( 1.000000000000000100E-005 ), #181, 'distance_accuracy_value', 'NONE');
#251 = DIRECTION ( 'NONE',  ( 1.000000000000000000, 0.0000000000000000000, 0.0000000000000000000 ) ) ;
#252 = CARTESIAN_POINT ( 'NONE',  ( 0.0000000000000000000, 0.0000000000000000000, 27.29999999999999700 ) ) ;
#253 = CARTESIAN_POINT ( 'NONE',  ( 12.47293809500223500, 0.0000000000000000000, -1.080024934418964700 ) ) ;
#254 = EDGE_LOOP ( 'NONE', ( #58, #294, #150, #133, #353 ) ) ;
#255 = EDGE_CURVE ( 'NONE', #268, #79, #357, .T. ) ;
#256 = AXIS2_PLACEMENT_3D ( 'NONE', #248, #90, #103 ) ;
#257 = ORIENTED_EDGE ( 'NONE', *, *, #207, .T. ) ;
#258 = DIRECTION ( 'NONE',  ( 1.000000000000000000, 0.0000000000000000000, 0.0000000000000000000 ) ) ;
#259 = CC_DESIGN_APPROVAL ( #153, ( #31 ) ) ;
#260 = CONICAL_SURFACE ( 'NONE', #11, 12.47293809500224000, 0.5743479550940614500 ) ;
#261 = DIRECTION ( 'NONE',  ( -1.000000000000000000, 0.0000000000000000000, 0.0000000000000000000 ) ) ;
#262 = EDGE_CURVE ( 'NONE', #312, #178, #220, .T. ) ;
#263 = AXIS2_PLACEMENT_3D ( 'NONE', #283, #214, #341 ) ;
#264 =( NAMED_UNIT ( * ) SI_UNIT ( $, .STERADIAN. ) SOLID_ANGLE_UNIT ( ) );
#265 = MANIFOLD_SOLID_BREP ( '4317-001-1-solid1', #96 ) ;
#266 = LINE ( 'NONE', #267, #274 ) ;
#267 = CARTESIAN_POINT ( 'NONE',  ( -12.69999999999999900, 1.555301434917138400E-015, -0.7291442586228186200 ) ) ;
#268 = VERTEX_POINT ( 'NONE', #351 ) ;
#269 = VECTOR ( 'NONE', #168, 1000.000000000000000 ) ;
#270 = LOCAL_TIME ( 16, 44, 29.00000000000000000, #112 ) ;
#271 = ADVANCED_FACE ( 'NONE', ( #59 ), #124, .T. ) ;
#272 =( NAMED_UNIT ( * ) PLANE_ANGLE_UNIT ( ) SI_UNIT ( $, .RADIAN. ) );
#273 = PRODUCT ( '4317-E0W', '4317-E0W', '', ( #123 ) ) ;
#274 = VECTOR ( 'NONE', #302, 1000.000000000000100 ) ;
#275 = CC_DESIGN_PERSON_AND_ORGANIZATION_ASSIGNMENT ( #221, #30, ( #167 ) ) ;
#276 = CARTESIAN_POINT ( 'NONE',  ( 0.0000000000000000000, 0.0000000000000000000, 0.7291442586228256100 ) ) ;
#277 = DIRECTION ( 'NONE',  ( 0.0000000000000000000, 0.0000000000000000000, -1.000000000000000000 ) ) ;
#278 = FACE_OUTER_BOUND ( 'NONE', #4, .T. ) ;
#279 = DATE_AND_TIME ( #84, #342 ) ;
#280 = CYLINDRICAL_SURFACE ( 'NONE', #317, 12.69999999999999900 ) ;
#281 = EDGE_CURVE ( 'NONE', #241, #160, #27, .T. ) ;
#282 = ORIENTED_EDGE ( 'NONE', *, *, #229, .T. ) ;
#283 = CARTESIAN_POINT ( 'NONE',  ( 0.0000000000000000000, 0.0000000000000000000, -27.29999999999999700 ) ) ;
#284 = PERSON ( 'UNSPECIFIED', 'UNSPECIFIED', 'UNSPECIFIED', ('UNSPECIFIED'), ('UNSPECIFIED'), ('UNSPECIFIED') ) ;
#285 = ORIENTED_EDGE ( 'NONE', *, *, #249, .T. ) ;
#286 = DIRECTION ( 'NONE',  ( -0.0000000000000000000, -0.0000000000000000000, 1.000000000000000000 ) ) ;
#287 = SPHERICAL_SURFACE ( 'NONE', #169, 31.00000000000000000 ) ;
#288 = AXIS2_PLACEMENT_3D ( 'NONE', #189, #366, #251 ) ;
#289 = APPROVAL_DATE_TIME ( #279, #153 ) ;
#290 = DIRECTION ( 'NONE',  ( 0.0000000000000000000, 1.000000000000000000, 0.0000000000000000000 ) ) ;
#291 = AXIS2_PLACEMENT_3D ( 'NONE', #116, #94, #359 ) ;
#292 = ORIENTED_EDGE ( 'NONE', *, *, #146, .F. ) ;
#293 = ORIENTED_EDGE ( 'NONE', *, *, #201, .F. ) ;
#294 = ORIENTED_EDGE ( 'NONE', *, *, #180, .T. ) ;
#295 = CARTESIAN_POINT ( 'NONE',  ( 0.0000000000000000000, 0.0000000000000000000, 1.080024934418957600 ) ) ;
#296 = APPROVAL_DATE_TIME ( #22, #8 ) ;
#297 = ADVANCED_FACE ( 'NONE', ( #278 ), #182, .T. ) ;
#298 = PERSON_AND_ORGANIZATION_ROLE ( 'classification_officer' ) ;
#299 = DIRECTION ( 'NONE',  ( 0.0000000000000000000, 0.0000000000000000000, -1.000000000000000000 ) ) ;
#300 = CONICAL_SURFACE ( 'NONE', #65, 12.69999999999999900, 0.5743479550940618900 ) ;
#301 = AXIS2_PLACEMENT_3D ( 'NONE', #92, #173, #128 ) ;
#302 = DIRECTION ( 'NONE',  ( -0.5432874840474292100, 6.653352783555030500E-017, 0.8395467287038966800 ) ) ;
#303 = CONICAL_SURFACE ( 'NONE', #161, 12.69999999999999900, 0.5743479550940618900 ) ;
#304 = APPROVAL_ROLE ( '' ) ;
#305 = AXIS2_PLACEMENT_3D ( 'NONE', #360, #346, #309 ) ;
#306 = CARTESIAN_POINT ( 'NONE',  ( 0.0000000000000000000, 0.0000000000000000000, 1.080024934418957600 ) ) ;
#307 = CIRCLE ( 'NONE', #42, 12.69999999999999900 ) ;
#308 = APPROVAL_DATE_TIME ( #215, #66 ) ;
#309 = DIRECTION ( 'NONE',  ( 1.000000000000000000, 0.0000000000000000000, 0.0000000000000000000 ) ) ;
#310 = APPROVAL_STATUS ( 'not_yet_approved' ) ;
#311 =( GEOMETRIC_REPRESENTATION_CONTEXT ( 3 ) GLOBAL_UNCERTAINTY_ASSIGNED_CONTEXT ( ( #250 ) ) GLOBAL_UNIT_ASSIGNED_CONTEXT ( ( #181, #272, #264 ) ) REPRESENTATION_CONTEXT ( 'NONE', 'WORKASPACE' ) );
#312 = VERTEX_POINT ( 'NONE', #335 ) ;
#313 = DATE_AND_TIME ( #320, #5 ) ;
#314 = COORDINATED_UNIVERSAL_TIME_OFFSET ( 5, 0, .BEHIND. ) ;
#315 = EDGE_CURVE ( 'NONE', #115, #326, #3, .T. ) ;
#316 = CARTESIAN_POINT ( 'NONE',  ( 0.0000000000000000000, 0.0000000000000000000, 0.7291442586228256100 ) ) ;
#317 = AXIS2_PLACEMENT_3D ( 'NONE', #75, #337, #54 ) ;
#318 = DIRECTION ( 'NONE',  ( -1.000000000000000000, 0.0000000000000000000, 0.0000000000000000000 ) ) ;
#319 = ORIENTED_EDGE ( 'NONE', *, *, #200, .F. ) ;
#320 = CALENDAR_DATE ( 2015, 17, 6 ) ;
#321 = CIRCLE ( 'NONE', #1, 12.47293809500223800 ) ;
#322 = DIRECTION ( 'NONE',  ( 0.0000000000000000000, 0.0000000000000000000, -1.000000000000000000 ) ) ;
#323 = CARTESIAN_POINT ( 'NONE',  ( -12.47293809500223500, 1.541397903158947700E-015, -1.080024934418964700 ) ) ;
#324 = DIRECTION ( 'NONE',  ( 0.0000000000000000000, 1.000000000000000000, 0.0000000000000000000 ) ) ;
#325 = DIRECTION ( 'NONE',  ( 1.000000000000000000, 0.0000000000000000000, 0.0000000000000000000 ) ) ;
#326 = VERTEX_POINT ( 'NONE', #232 ) ;
#327 = ORIENTED_EDGE ( 'NONE', *, *, #315, .T. ) ;
#328 = APPLICATION_CONTEXT ( 'configuration controlled 3d designs of mechanical parts and assemblies' ) ;
#329 = DIRECTION ( 'NONE',  ( 0.0000000000000000000, 0.0000000000000000000, -1.000000000000000000 ) ) ;
#330 = ADVANCED_FACE ( 'NONE', ( #233 ), #287, .T. ) ;
#331 = DESIGN_CONTEXT ( 'detailed design', #204, 'design' ) ;
#332 = DIRECTION ( 'NONE',  ( -1.000000000000000000, 0.0000000000000000000, 0.0000000000000000000 ) ) ;
#333 = VERTEX_POINT ( 'NONE', #236 ) ;
#334 = ORIENTED_EDGE ( 'NONE', *, *, #207, .F. ) ;
#335 = CARTESIAN_POINT ( 'NONE',  ( -12.69999999999999900, 1.555301434917138400E-015, -0.7291442586228186200 ) ) ;
#336 = CARTESIAN_POINT ( 'NONE',  ( 12.47293809500224000, 1.527494371400757700E-015, 1.080024934418961200 ) ) ;
#337 = DIRECTION ( 'NONE',  ( -0.0000000000000000000, -0.0000000000000000000, 1.000000000000000000 ) ) ;
#338 = ADVANCED_BREP_SHAPE_REPRESENTATION ( '4317-E0W', ( #265, #51 ), #311 ) ;
#339 = DIRECTION ( 'NONE',  ( -1.000000000000000000, 0.0000000000000000000, 0.0000000000000000000 ) ) ;
#340 = VERTEX_POINT ( 'NONE', #323 ) ;
#341 = DIRECTION ( 'NONE',  ( -1.224646799147353200E-016, -1.000000000000000000, 0.0000000000000000000 ) ) ;
#342 = LOCAL_TIME ( 16, 44, 29.00000000000000000, #162 ) ;
#343 = AXIS2_PLACEMENT_3D ( 'NONE', #102, #240, #138 ) ;
#344 = DIRECTION ( 'NONE',  ( 0.0000000000000000000, 0.0000000000000000000, 1.000000000000000000 ) ) ;
#345 = ORIENTED_EDGE ( 'NONE', *, *, #146, .T. ) ;
#346 = DIRECTION ( 'NONE',  ( 0.0000000000000000000, 0.0000000000000000000, -1.000000000000000000 ) ) ;
#347 = PERSON_AND_ORGANIZATION_ROLE ( 'design_supplier' ) ;
#348 = DIRECTION ( 'NONE',  ( -0.0000000000000000000, -0.0000000000000000000, 1.000000000000000000 ) ) ;
#349 = APPROVAL_ROLE ( '' ) ;
#350 = DIRECTION ( 'NONE',  ( 1.000000000000000000, 0.0000000000000000000, 0.0000000000000000000 ) ) ;
#351 = CARTESIAN_POINT ( 'NONE',  ( 0.0000000000000000000, 12.47293809500223500, -1.080024934418966500 ) ) ;
#352 = ORIENTED_EDGE ( 'NONE', *, *, #164, .T. ) ;
#353 = ORIENTED_EDGE ( 'NONE', *, *, #255, .F. ) ;
#354 = PERSON_AND_ORGANIZATION ( #284, #49 ) ;
#355 = ORIENTED_EDGE ( 'NONE', *, *, #147, .T. ) ;
#356 = APPROVAL_PERSON_ORGANIZATION ( #155, #8, #349 ) ;
#357 = CIRCLE ( 'NONE', #305, 12.47293809500223500 ) ;
#358 = COORDINATED_UNIVERSAL_TIME_OFFSET ( 5, 0, .BEHIND. ) ;
#359 = DIRECTION ( 'NONE',  ( 0.0000000000000000000, 1.000000000000000000, 0.0000000000000000000 ) ) ;
#360 = CARTESIAN_POINT ( 'NONE',  ( 0.0000000000000000000, 0.0000000000000000000, -1.080024934418964700 ) ) ;
#361 = EDGE_LOOP ( 'NONE', ( #33, #172, #64, #355 ) ) ;
#362 = ORIENTED_EDGE ( 'NONE', *, *, #184, .T. ) ;
#363 = PRODUCT_DEFINITION_SHAPE ( 'NONE', 'NONE',  #167 ) ;
#364 = PERSON_AND_ORGANIZATION_ROLE ( 'creator' ) ;
#365 = CARTESIAN_POINT ( 'NONE',  ( -1.527494371400756900E-015, -12.47293809500223500, -1.080024934418966500 ) ) ;
#366 = DIRECTION ( 'NONE',  ( -0.0000000000000000000, -0.0000000000000000000, 1.000000000000000000 ) ) ;
#367 = APPROVAL_STATUS ( 'not_yet_approved' ) ;
ENDSEC;
END-ISO-10303-21;
