ISO-10303-21;
HEADER;
FILE_DESCRIPTION (( 'STEP AP203' ),
    '1' );
FILE_NAME ('43367C_36571.step',
    '2017-07-20T12:43:15',
    ( '' ),
    ( '' ),
    'SwSTEP 2.0',
    'SolidWorks 2016',
    '' );
FILE_SCHEMA (( 'CONFIG_CONTROL_DESIGN' ));
ENDSEC;

DATA;
#1 = EDGE_CURVE ( 'NONE', #62, #160, #167, .T. ) ;
#2 = APPROVAL_PERSON_ORGANIZATION ( #41, #79, #48 ) ;
#3 = PERSON_AND_ORGANIZATION ( #29, #86 ) ;
#4 = ORIENTED_EDGE ( 'NONE', *, *, #127, .F. ) ;
#5 = DIRECTION ( 'NONE',  ( 0.0000000000000000000, 0.0000000000000000000, 1.000000000000000000 ) ) ;
#6 = DIRECTION ( 'NONE',  ( 1.000000000000000000, 0.0000000000000000000, 0.0000000000000000000 ) ) ;
#7 = SECURITY_CLASSIFICATION_LEVEL ( 'unclassified' ) ;
#8 = AXIS2_PLACEMENT_3D ( 'NONE', #25, #115, #40 ) ;
#9 = CC_DESIGN_DATE_AND_TIME_ASSIGNMENT ( #56, #17, ( #164 ) ) ;
#10 = DIRECTION ( 'NONE',  ( -0.0000000000000000000, -0.0000000000000000000, -1.000000000000000000 ) ) ;
#11 = AXIS2_PLACEMENT_3D ( 'NONE', #21, #74, #170 ) ;
#12 = LINE ( 'NONE', #55, #152 ) ;
#13 = APPROVAL ( #111, 'UNSPECIFIED' ) ;
#14 = DATE_AND_TIME ( #50, #84 ) ;
#15 = ORIENTED_EDGE ( 'NONE', *, *, #133, .T. ) ;
#16 = PERSON_AND_ORGANIZATION_ROLE ( 'design_owner' ) ;
#17 = DATE_TIME_ROLE ( 'classification_date' ) ;
#18 = VECTOR ( 'NONE', #103, 1000.000000000000000 ) ;
#19 = PERSON_AND_ORGANIZATION ( #29, #86 ) ;
#20 = ORIENTED_EDGE ( 'NONE', *, *, #133, .F. ) ;
#21 = CARTESIAN_POINT ( 'NONE',  ( 0.0000000000000000000, 0.0000000000000000000, 1.000000000000000000 ) ) ;
#22 = CIRCLE ( 'NONE', #8, 7.500000000000000000 ) ;
#23 = AXIS2_PLACEMENT_3D ( 'NONE', #78, #172, #49 ) ;
#24 = CARTESIAN_POINT ( 'NONE',  ( -7.500000000000000000, 0.0000000000000000000, 1.000000000000000000 ) ) ;
#25 = CARTESIAN_POINT ( 'NONE',  ( 0.0000000000000000000, 0.0000000000000000000, 1.000000000000000000 ) ) ;
#26 = PERSON_AND_ORGANIZATION ( #29, #86 ) ;
#27 = CC_DESIGN_APPROVAL ( #13, ( #164 ) ) ;
#28 = FACE_OUTER_BOUND ( 'NONE', #132, .T. ) ;
#29 = PERSON ( 'UNSPECIFIED', 'UNSPECIFIED', 'UNSPECIFIED', ('UNSPECIFIED'), ('UNSPECIFIED'), ('UNSPECIFIED') ) ;
#30 = ADVANCED_FACE ( 'NONE', ( #125 ), #38, .T. ) ;
#31 = CALENDAR_DATE ( 2017, 20, 7 ) ;
#32 = APPLICATION_PROTOCOL_DEFINITION ( 'international standard', 'config_control_design', 1994, #110 ) ;
#33 = APPROVAL_ROLE ( '' ) ;
#34 = AXIS2_PLACEMENT_3D ( 'NONE', #87, #10, #63 ) ;
#35 = DATE_AND_TIME ( #69, #105 ) ;
#36 = ORIENTED_EDGE ( 'NONE', *, *, #127, .T. ) ;
#37 = CC_DESIGN_SECURITY_CLASSIFICATION ( #164, ( #116 ) ) ;
#38 = PLANE ( 'NONE',  #11 ) ;
#39 = CARTESIAN_POINT ( 'NONE',  ( 0.0000000000000000000, 0.0000000000000000000, 1.000000000000000000 ) ) ;
#40 = DIRECTION ( 'NONE',  ( 1.000000000000000000, 0.0000000000000000000, 0.0000000000000000000 ) ) ;
#41 = PERSON_AND_ORGANIZATION ( #29, #86 ) ;
#42 = APPROVAL_DATE_TIME ( #72, #79 ) ;
#43 = AXIS2_PLACEMENT_3D ( 'NONE', #39, #102, #144 ) ;
#44 = ADVANCED_FACE ( 'NONE', ( #28 ), #122, .T. ) ;
#45 = CARTESIAN_POINT ( 'NONE',  ( -7.500000000000000000, 0.0000000000000000000, -1.000000000000000000 ) ) ;
#46 =( NAMED_UNIT ( * ) PLANE_ANGLE_UNIT ( ) SI_UNIT ( $, .RADIAN. ) );
#47 = PRODUCT_RELATED_PRODUCT_CATEGORY ( 'detail', '', ( #77 ) ) ;
#48 = APPROVAL_ROLE ( '' ) ;
#49 = DIRECTION ( 'NONE',  ( 1.000000000000000000, 0.0000000000000000000, 0.0000000000000000000 ) ) ;
#50 = CALENDAR_DATE ( 2017, 20, 7 ) ;
#51 = EDGE_LOOP ( 'NONE', ( #20, #131, #142, #57 ) ) ;
#52 = CYLINDRICAL_SURFACE ( 'NONE', #43, 7.500000000000000000 ) ;
#53 = AXIS2_PLACEMENT_3D ( 'NONE', #148, #81, #6 ) ;
#54 = ORIENTED_EDGE ( 'NONE', *, *, #143, .T. ) ;
#55 = CARTESIAN_POINT ( 'NONE',  ( -7.500000000000000000, 0.0000000000000000000, 1.000000000000000000 ) ) ;
#56 = DATE_AND_TIME ( #89, #124 ) ;
#57 = ORIENTED_EDGE ( 'NONE', *, *, #151, .T. ) ;
#58 = DATE_TIME_ROLE ( 'creation_date' ) ;
#59 = LINE ( 'NONE', #113, #18 ) ;
#60 = AXIS2_PLACEMENT_3D ( 'NONE', #80, #5, #94 ) ;
#61 = PERSON_AND_ORGANIZATION ( #29, #86 ) ;
#62 = VERTEX_POINT ( 'NONE', #128 ) ;
#63 = DIRECTION ( 'NONE',  ( -1.000000000000000000, 0.0000000000000000000, 0.0000000000000000000 ) ) ;
#64 = PLANE ( 'NONE',  #68 ) ;
#65 = CC_DESIGN_PERSON_AND_ORGANIZATION_ASSIGNMENT ( #71, #16, ( #77 ) ) ;
#66 = LOCAL_TIME ( 8, 43, 15.00000000000000000, #99 ) ;
#67 = CALENDAR_DATE ( 2017, 20, 7 ) ;
#68 = AXIS2_PLACEMENT_3D ( 'NONE', #129, #108, #134 ) ;
#69 = CALENDAR_DATE ( 2017, 20, 7 ) ;
#70 = APPROVAL_ROLE ( '' ) ;
#71 = PERSON_AND_ORGANIZATION ( #29, #86 ) ;
#72 = DATE_AND_TIME ( #67, #104 ) ;
#73 = PRODUCT_DEFINITION ( 'UNKNOWN', '', #116, #146 ) ;
#74 = DIRECTION ( 'NONE',  ( 0.0000000000000000000, 0.0000000000000000000, 1.000000000000000000 ) ) ;
#75 =( GEOMETRIC_REPRESENTATION_CONTEXT ( 3 ) GLOBAL_UNCERTAINTY_ASSIGNED_CONTEXT ( ( #106 ) ) GLOBAL_UNIT_ASSIGNED_CONTEXT ( ( #119, #46, #137 ) ) REPRESENTATION_CONTEXT ( 'NONE', 'WORKASPACE' ) );
#76 = ADVANCED_BREP_SHAPE_REPRESENTATION ( '43367C_36571', ( #139, #53 ), #75 ) ;
#77 = PRODUCT ( '43367C_36571', '43367C_36571', '', ( #95 ) ) ;
#78 = CARTESIAN_POINT ( 'NONE',  ( 0.0000000000000000000, 0.0000000000000000000, 1.000000000000000000 ) ) ;
#79 = APPROVAL ( #121, 'UNSPECIFIED' ) ;
#80 = CARTESIAN_POINT ( 'NONE',  ( 0.0000000000000000000, 0.0000000000000000000, -1.000000000000000000 ) ) ;
#81 = DIRECTION ( 'NONE',  ( 0.0000000000000000000, 0.0000000000000000000, 1.000000000000000000 ) ) ;
#82 = PERSON_AND_ORGANIZATION_ROLE ( 'design_supplier' ) ;
#83 = CIRCLE ( 'NONE', #60, 7.500000000000000000 ) ;
#84 = LOCAL_TIME ( 8, 43, 15.00000000000000000, #118 ) ;
#85 = ORIENTED_EDGE ( 'NONE', *, *, #1, .T. ) ;
#86 = ORGANIZATION ( 'UNSPECIFIED', 'UNSPECIFIED', '' ) ;
#87 = CARTESIAN_POINT ( 'NONE',  ( 0.0000000000000000000, 0.0000000000000000000, 1.000000000000000000 ) ) ;
#88 = CC_DESIGN_APPROVAL ( #79, ( #73 ) ) ;
#89 = CALENDAR_DATE ( 2017, 20, 7 ) ;
#90 = VERTEX_POINT ( 'NONE', #24 ) ;
#91 = CIRCLE ( 'NONE', #23, 7.500000000000000000 ) ;
#92 = ADVANCED_FACE ( 'NONE', ( #162 ), #52, .T. ) ;
#93 = PERSON_AND_ORGANIZATION ( #29, #86 ) ;
#94 = DIRECTION ( 'NONE',  ( 1.000000000000000000, 0.0000000000000000000, 0.0000000000000000000 ) ) ;
#95 = MECHANICAL_CONTEXT ( 'NONE', #165, 'mechanical' ) ;
#96 = PERSON_AND_ORGANIZATION_ROLE ( 'classification_officer' ) ;
#97 = EDGE_LOOP ( 'NONE', ( #101, #155 ) ) ;
#98 = ORIENTED_EDGE ( 'NONE', *, *, #168, .F. ) ;
#99 = COORDINATED_UNIVERSAL_TIME_OFFSET ( 5, 0, .BEHIND. ) ;
#100 = CC_DESIGN_PERSON_AND_ORGANIZATION_ASSIGNMENT ( #3, #138, ( #73 ) ) ;
#101 = ORIENTED_EDGE ( 'NONE', *, *, #151, .F. ) ;
#102 = DIRECTION ( 'NONE',  ( -0.0000000000000000000, -0.0000000000000000000, -1.000000000000000000 ) ) ;
#103 = DIRECTION ( 'NONE',  ( -0.0000000000000000000, -0.0000000000000000000, -1.000000000000000000 ) ) ;
#104 = LOCAL_TIME ( 8, 43, 15.00000000000000000, #140 ) ;
#105 = LOCAL_TIME ( 8, 43, 15.00000000000000000, #141 ) ;
#106 = UNCERTAINTY_MEASURE_WITH_UNIT (LENGTH_MEASURE( 1.000000000000000100E-005 ), #119, 'distance_accuracy_value', 'NONE');
#107 = CC_DESIGN_DATE_AND_TIME_ASSIGNMENT ( #35, #58, ( #73 ) ) ;
#108 = DIRECTION ( 'NONE',  ( 0.0000000000000000000, 0.0000000000000000000, 1.000000000000000000 ) ) ;
#109 = DIRECTION ( 'NONE',  ( -0.0000000000000000000, -0.0000000000000000000, -1.000000000000000000 ) ) ;
#110 = APPLICATION_CONTEXT ( 'configuration controlled 3d designs of mechanical parts and assemblies' ) ;
#111 = APPROVAL_STATUS ( 'not_yet_approved' ) ;
#112 = PRODUCT_DEFINITION_SHAPE ( 'NONE', 'NONE',  #73 ) ;
#113 = CARTESIAN_POINT ( 'NONE',  ( 7.500000000000000000, 9.184850993605147900E-016, 1.000000000000000000 ) ) ;
#114 = SHAPE_DEFINITION_REPRESENTATION ( #112, #76 ) ;
#115 = DIRECTION ( 'NONE',  ( 0.0000000000000000000, 0.0000000000000000000, 1.000000000000000000 ) ) ;
#116 = PRODUCT_DEFINITION_FORMATION_WITH_SPECIFIED_SOURCE ( 'ANY', '', #77, .NOT_KNOWN. ) ;
#117 = VERTEX_POINT ( 'NONE', #171 ) ;
#118 = COORDINATED_UNIVERSAL_TIME_OFFSET ( 5, 0, .BEHIND. ) ;
#119 =( LENGTH_UNIT ( ) NAMED_UNIT ( * ) SI_UNIT ( .MILLI., .METRE. ) );
#120 = EDGE_LOOP ( 'NONE', ( #54, #36 ) ) ;
#121 = APPROVAL_STATUS ( 'not_yet_approved' ) ;
#122 = CYLINDRICAL_SURFACE ( 'NONE', #34, 7.500000000000000000 ) ;
#123 = APPROVAL ( #150, 'UNSPECIFIED' ) ;
#124 = LOCAL_TIME ( 8, 43, 15.00000000000000000, #163 ) ;
#125 = FACE_OUTER_BOUND ( 'NONE', #120, .T. ) ;
#126 = CARTESIAN_POINT ( 'NONE',  ( 0.0000000000000000000, 0.0000000000000000000, -1.000000000000000000 ) ) ;
#127 = EDGE_CURVE ( 'NONE', #117, #90, #22, .T. ) ;
#128 = CARTESIAN_POINT ( 'NONE',  ( 7.500000000000000000, 9.184850993605147900E-016, -1.000000000000000000 ) ) ;
#129 = CARTESIAN_POINT ( 'NONE',  ( 0.0000000000000000000, 0.0000000000000000000, -1.000000000000000000 ) ) ;
#130 = APPROVAL_DATE_TIME ( #169, #123 ) ;
#131 = ORIENTED_EDGE ( 'NONE', *, *, #143, .F. ) ;
#132 = EDGE_LOOP ( 'NONE', ( #4, #15, #85, #98 ) ) ;
#133 = EDGE_CURVE ( 'NONE', #117, #62, #59, .T. ) ;
#134 = DIRECTION ( 'NONE',  ( 1.000000000000000000, 0.0000000000000000000, -0.0000000000000000000 ) ) ;
#135 = APPROVAL_PERSON_ORGANIZATION ( #173, #123, #70 ) ;
#136 = CC_DESIGN_APPROVAL ( #123, ( #116 ) ) ;
#137 =( NAMED_UNIT ( * ) SI_UNIT ( $, .STERADIAN. ) SOLID_ANGLE_UNIT ( ) );
#138 = PERSON_AND_ORGANIZATION_ROLE ( 'creator' ) ;
#139 = MANIFOLD_SOLID_BREP ( 'Boss-Extrude1', #174 ) ;
#140 = COORDINATED_UNIVERSAL_TIME_OFFSET ( 5, 0, .BEHIND. ) ;
#141 = COORDINATED_UNIVERSAL_TIME_OFFSET ( 5, 0, .BEHIND. ) ;
#142 = ORIENTED_EDGE ( 'NONE', *, *, #168, .T. ) ;
#143 = EDGE_CURVE ( 'NONE', #90, #117, #91, .T. ) ;
#144 = DIRECTION ( 'NONE',  ( -1.000000000000000000, 0.0000000000000000000, 0.0000000000000000000 ) ) ;
#145 = CC_DESIGN_PERSON_AND_ORGANIZATION_ASSIGNMENT ( #93, #166, ( #116 ) ) ;
#146 = DESIGN_CONTEXT ( 'detailed design', #110, 'design' ) ;
#147 = ADVANCED_FACE ( 'NONE', ( #158 ), #64, .F. ) ;
#148 = CARTESIAN_POINT ( 'NONE',  ( 0.0000000000000000000, 0.0000000000000000000, 0.0000000000000000000 ) ) ;
#149 = APPLICATION_PROTOCOL_DEFINITION ( 'international standard', 'config_control_design', 1994, #165 ) ;
#150 = APPROVAL_STATUS ( 'not_yet_approved' ) ;
#151 = EDGE_CURVE ( 'NONE', #160, #62, #83, .T. ) ;
#152 = VECTOR ( 'NONE', #109, 1000.000000000000000 ) ;
#153 = CC_DESIGN_PERSON_AND_ORGANIZATION_ASSIGNMENT ( #61, #82, ( #116 ) ) ;
#154 = APPROVAL_DATE_TIME ( #14, #13 ) ;
#155 = ORIENTED_EDGE ( 'NONE', *, *, #1, .F. ) ;
#156 = DIRECTION ( 'NONE',  ( 0.0000000000000000000, 0.0000000000000000000, 1.000000000000000000 ) ) ;
#157 = DIRECTION ( 'NONE',  ( 1.000000000000000000, 0.0000000000000000000, 0.0000000000000000000 ) ) ;
#158 = FACE_OUTER_BOUND ( 'NONE', #97, .T. ) ;
#159 = APPROVAL_PERSON_ORGANIZATION ( #19, #13, #33 ) ;
#160 = VERTEX_POINT ( 'NONE', #45 ) ;
#161 = AXIS2_PLACEMENT_3D ( 'NONE', #126, #156, #157 ) ;
#162 = FACE_OUTER_BOUND ( 'NONE', #51, .T. ) ;
#163 = COORDINATED_UNIVERSAL_TIME_OFFSET ( 5, 0, .BEHIND. ) ;
#164 = SECURITY_CLASSIFICATION ( '', '', #7 ) ;
#165 = APPLICATION_CONTEXT ( 'configuration controlled 3d designs of mechanical parts and assemblies' ) ;
#166 = PERSON_AND_ORGANIZATION_ROLE ( 'creator' ) ;
#167 = CIRCLE ( 'NONE', #161, 7.500000000000000000 ) ;
#168 = EDGE_CURVE ( 'NONE', #90, #160, #12, .T. ) ;
#169 = DATE_AND_TIME ( #31, #66 ) ;
#170 = DIRECTION ( 'NONE',  ( 1.000000000000000000, 0.0000000000000000000, -0.0000000000000000000 ) ) ;
#171 = CARTESIAN_POINT ( 'NONE',  ( 7.500000000000000000, 9.184850993605147900E-016, 1.000000000000000000 ) ) ;
#172 = DIRECTION ( 'NONE',  ( 0.0000000000000000000, 0.0000000000000000000, 1.000000000000000000 ) ) ;
#173 = PERSON_AND_ORGANIZATION ( #29, #86 ) ;
#174 = CLOSED_SHELL ( 'NONE', ( #44, #92, #30, #147 ) ) ;
#175 = CC_DESIGN_PERSON_AND_ORGANIZATION_ASSIGNMENT ( #26, #96, ( #164 ) ) ;
ENDSEC;
END-ISO-10303-21;
