ISO-10303-21;
HEADER;
FILE_DESCRIPTION (( 'STEP AP214' ),
    '1' );
FILE_NAME ('15653-E0W.STEP',
    '2009-02-03T13:54:42',
    ( '' ),
    ( '' ),
    'SwSTEP 2.0',
    'SolidWorks 2007',
    '' );
FILE_SCHEMA (( 'AUTOMOTIVE_DESIGN' ));
ENDSEC;

DATA;
#1 = ADVANCED_FACE ( 'NONE', ( #98 ), #278, .T. ) ;
#2 = CLOSED_SHELL ( 'NONE', ( #22, #45, #93, #69, #1, #16, #38, #52 ) ) ;
#3 = ORIENTED_EDGE ( 'NONE', *, *, #65, .F. ) ;
#4 = ORIENTED_EDGE ( 'NONE', *, *, #6, .T. ) ;
#5 = ORIENTED_EDGE ( 'NONE', *, *, #60, .F. ) ;
#6 = EDGE_CURVE ( 'NONE', #64, #61, #112, .T. ) ;
#7 = EDGE_LOOP ( 'NONE', ( #8, #9, #11, #12, #14, #15 ) ) ;
#8 = ORIENTED_EDGE ( 'NONE', *, *, #44, .T. ) ;
#9 = ORIENTED_EDGE ( 'NONE', *, *, #10, .T. ) ;
#10 = EDGE_CURVE ( 'NONE', #42, #71, #107, .T. ) ;
#11 = ORIENTED_EDGE ( 'NONE', *, *, #96, .T. ) ;
#12 = ORIENTED_EDGE ( 'NONE', *, *, #13, .T. ) ;
#13 = EDGE_CURVE ( 'NONE', #72, #35, #100, .T. ) ;
#14 = ORIENTED_EDGE ( 'NONE', *, *, #34, .T. ) ;
#15 = ORIENTED_EDGE ( 'NONE', *, *, #83, .T. ) ;
#16 = ADVANCED_FACE ( 'NONE', ( #99 ), #232, .T. ) ;
#17 = EDGE_LOOP ( 'NONE', ( #18, #19, #36, #37 ) ) ;
#18 = ORIENTED_EDGE ( 'NONE', *, *, #13, .F. ) ;
#19 = ORIENTED_EDGE ( 'NONE', *, *, #84, .F. ) ;
#20 = EDGE_LOOP ( 'NONE', ( #23, #27, #30, #33, #40, #43 ) ) ;
#21 = MANIFOLD_SOLID_BREP ( 'NONE', #2 ) ;
#22 = ADVANCED_FACE ( 'NONE', ( #190 ), #172, .T. ) ;
#23 = ORIENTED_EDGE ( 'NONE', *, *, #24, .F. ) ;
#24 = EDGE_CURVE ( 'NONE', #25, #26, #173, .T. ) ;
#25 = VERTEX_POINT ( 'NONE', #165 ) ;
#26 = VERTEX_POINT ( 'NONE', #164 ) ;
#27 = ORIENTED_EDGE ( 'NONE', *, *, #28, .T. ) ;
#28 = EDGE_CURVE ( 'NONE', #25, #29, #163, .T. ) ;
#29 = VERTEX_POINT ( 'NONE', #158 ) ;
#30 = ORIENTED_EDGE ( 'NONE', *, *, #31, .T. ) ;
#31 = EDGE_CURVE ( 'NONE', #29, #32, #157, .T. ) ;
#32 = VERTEX_POINT ( 'NONE', #153 ) ;
#33 = ORIENTED_EDGE ( 'NONE', *, *, #34, .F. ) ;
#34 = EDGE_CURVE ( 'NONE', #35, #32, #299, .T. ) ;
#35 = VERTEX_POINT ( 'NONE', #152 ) ;
#36 = ORIENTED_EDGE ( 'NONE', *, *, #10, .F. ) ;
#37 = ORIENTED_EDGE ( 'NONE', *, *, #41, .F. ) ;
#38 = ADVANCED_FACE ( 'NONE', ( #294 ), #151, .T. ) ;
#39 = EDGE_LOOP ( 'NONE', ( #3, #4, #5, #51 ) ) ;
#40 = ORIENTED_EDGE ( 'NONE', *, *, #41, .T. ) ;
#41 = EDGE_CURVE ( 'NONE', #35, #42, #288, .T. ) ;
#42 = VERTEX_POINT ( 'NONE', #289 ) ;
#43 = ORIENTED_EDGE ( 'NONE', *, *, #44, .F. ) ;
#44 = EDGE_CURVE ( 'NONE', #26, #42, #282, .T. ) ;
#45 = ADVANCED_FACE ( 'NONE', ( #283 ), #211, .F. ) ;
#46 = EDGE_LOOP ( 'NONE', ( #47, #62, #81, #82, #85, #86 ) ) ;
#47 = ORIENTED_EDGE ( 'NONE', *, *, #60, .T. ) ;
#48 = VERTEX_POINT ( 'NONE', #206 ) ;
#49 = ORIENTED_EDGE ( 'NONE', *, *, #28, .F. ) ;
#50 = ORIENTED_EDGE ( 'NONE', *, *, #87, .F. ) ;
#51 = ORIENTED_EDGE ( 'NONE', *, *, #54, .T. ) ;
#52 = ADVANCED_FACE ( 'NONE', ( #205 ), #203, .T. ) ;
#53 = EDGE_LOOP ( 'NONE', ( #50, #49, #55, #56, #57, #58 ) ) ;
#54 = EDGE_CURVE ( 'NONE', #48, #68, #270, .T. ) ;
#55 = ORIENTED_EDGE ( 'NONE', *, *, #80, .F. ) ;
#56 = ORIENTED_EDGE ( 'NONE', *, *, #6, .F. ) ;
#57 = ORIENTED_EDGE ( 'NONE', *, *, #92, .F. ) ;
#58 = ORIENTED_EDGE ( 'NONE', *, *, #54, .F. ) ;
#59 = COLOUR_RGB ( '',0.7529411764705882200, 0.7529411764705882200, 0.7529411764705882200 ) ;
#60 = EDGE_CURVE ( 'NONE', #48, #61, #269, .T. ) ;
#61 = VERTEX_POINT ( 'NONE', #261 ) ;
#62 = ORIENTED_EDGE ( 'NONE', *, *, #80, .T. ) ;
#63 = EDGE_LOOP ( 'NONE', ( #70, #91 ) ) ;
#64 = VERTEX_POINT ( 'NONE', #260 ) ;
#65 = EDGE_CURVE ( 'NONE', #64, #68, #259, .T. ) ;
#66 =( NAMED_UNIT ( * ) SI_UNIT ( $, .STERADIAN. ) SOLID_ANGLE_UNIT ( ) );
#67 =( NAMED_UNIT ( * ) PLANE_ANGLE_UNIT ( ) SI_UNIT ( $, .RADIAN. ) );
#68 = VERTEX_POINT ( 'NONE', #255 ) ;
#69 = ADVANCED_FACE ( 'NONE', ( #254 ), #149, .T. ) ;
#70 = ORIENTED_EDGE ( 'NONE', *, *, #65, .T. ) ;
#71 = VERTEX_POINT ( 'NONE', #150 ) ;
#72 = VERTEX_POINT ( 'NONE', #144 ) ;
#73 = ORIENTED_EDGE ( 'NONE', *, *, #84, .T. ) ;
#74 = STYLED_ITEM ( 'NONE', ( #75 ), #1 ) ;
#75 = PRESENTATION_STYLE_ASSIGNMENT (( #76 ) ) ;
#76 = SURFACE_STYLE_USAGE ( .BOTH. , #77 ) ;
#77 = SURFACE_SIDE_STYLE ('',( #78 ) ) ;
#78 = SURFACE_STYLE_FILL_AREA ( #79 ) ;
#79 = FILL_AREA_STYLE ('',( #97 ) ) ;
#80 = EDGE_CURVE ( 'NONE', #61, #25, #143, .T. ) ;
#81 = ORIENTED_EDGE ( 'NONE', *, *, #24, .T. ) ;
#82 = ORIENTED_EDGE ( 'NONE', *, *, #83, .F. ) ;
#83 = EDGE_CURVE ( 'NONE', #32, #26, #139, .T. ) ;
#84 = EDGE_CURVE ( 'NONE', #71, #72, #135, .T. ) ;
#85 = ORIENTED_EDGE ( 'NONE', *, *, #31, .F. ) ;
#86 = ORIENTED_EDGE ( 'NONE', *, *, #87, .T. ) ;
#87 = EDGE_CURVE ( 'NONE', #29, #48, #130, .T. ) ;
#88 =( LENGTH_UNIT ( ) NAMED_UNIT ( * ) SI_UNIT ( .MILLI., .METRE. ) );
#89 = MECHANICAL_DESIGN_GEOMETRIC_PRESENTATION_REPRESENTATION (  '', ( #74 ), #274 ) ;
#90 = PRESENTATION_LAYER_ASSIGNMENT (  '', '', ( #74 ) ) ;
#91 = ORIENTED_EDGE ( 'NONE', *, *, #92, .T. ) ;
#92 = EDGE_CURVE ( 'NONE', #68, #64, #125, .T. ) ;
#93 = ADVANCED_FACE ( 'NONE', ( #120 ), #322, .F. ) ;
#94 = EDGE_LOOP ( 'NONE', ( #95, #73 ) ) ;
#95 = ORIENTED_EDGE ( 'NONE', *, *, #96, .F. ) ;
#96 = EDGE_CURVE ( 'NONE', #71, #72, #356, .T. ) ;
#97 = FILL_AREA_STYLE_COLOUR ( '', #59 ) ;
#98 = FACE_OUTER_BOUND ( 'NONE', #7, .T. ) ;
#99 = FACE_OUTER_BOUND ( 'NONE', #17, .T. ) ;
#100 = B_SPLINE_CURVE_WITH_KNOTS ( 'NONE', 3,
 ( #249, #248, #247, #246 ),
 .UNSPECIFIED., .F., .F.,
 ( 4, 4 ),
 ( 0.0000000000000000000, 0.0004125637600518931300 ),
 .UNSPECIFIED. ) ;
#101 = FILL_AREA_STYLE_COLOUR ( '', #102 ) ;
#102 = COLOUR_RGB ( '',0.7529411764705882200, 0.7529411764705882200, 0.7529411764705882200 ) ;
#103 = CARTESIAN_POINT ( 'NONE',  ( -12.03823768940732300, 3.175426480542894700, -3.000000000000000000 ) ) ;
#104 = CARTESIAN_POINT ( 'NONE',  ( -12.13679148667596800, 3.127470135376017700, -2.916937173625652900 ) ) ;
#105 = CARTESIAN_POINT ( 'NONE',  ( -12.23503592802014800, 3.079354391075948000, -2.833598259853939500 ) ) ;
#106 = CARTESIAN_POINT ( 'NONE',  ( -12.33298422929342100, 3.031088913245494300, -2.750000000000003100 ) ) ;
#107 = B_SPLINE_CURVE_WITH_KNOTS ( 'NONE', 3,
 ( #106, #105, #104, #103 ),
 .UNSPECIFIED., .F., .F.,
 ( 4, 4 ),
 ( 0.0000000000000000000, 0.0004125637600518940500 ),
 .UNSPECIFIED. ) ;
#108 = CARTESIAN_POINT ( 'NONE',  ( -12.49999999999999600, -3.843957612031114000E-015, 2.950000000000001500 ) ) ;
#109 = CARTESIAN_POINT ( 'NONE',  ( -12.48332217009221000, 0.01667782990777850700, 2.966677829907785400 ) ) ;
#110 = CARTESIAN_POINT ( 'NONE',  ( -12.46662208080081200, 0.03334454143682907100, 2.983344541436837400 ) ) ;
#111 = CARTESIAN_POINT ( 'NONE',  ( -12.44989959798872900, 0.04999999999999064900, 3.000000000000000000 ) ) ;
#112 = B_SPLINE_CURVE_WITH_KNOTS ( 'NONE', 3,
 ( #111, #110, #109, #108 ),
 .UNSPECIFIED., .F., .F.,
 ( 4, 4 ),
 ( 0.0000000000000000000, 8.666054628081991000E-005 ),
 .UNSPECIFIED. ) ;
#113 = DIRECTION ( 'NONE',  ( 0.0000000000000000000, 0.4999999999999951200, -0.8660254037844414800 ) ) ;
#114 = PRESENTATION_STYLE_ASSIGNMENT (( #115 ) ) ;
#115 = SURFACE_STYLE_USAGE ( .BOTH. , #116 ) ;
#116 = SURFACE_SIDE_STYLE ('',( #117 ) ) ;
#117 = SURFACE_STYLE_FILL_AREA ( #118 ) ;
#118 = FILL_AREA_STYLE ('',( #126 ) ) ;
#119 = COLOUR_RGB ( '',0.7529411764705882200, 0.7529411764705882200, 0.7529411764705882200 ) ;
#120 = FACE_OUTER_BOUND ( 'NONE', #94, .T. ) ;
#121 = DIRECTION ( 'NONE',  ( 1.000000000000000000, 0.0000000000000000000, 0.0000000000000000000 ) ) ;
#122 = DIRECTION ( 'NONE',  ( 0.0000000000000000000, 0.0000000000000000000, 1.000000000000000000 ) ) ;
#123 = CARTESIAN_POINT ( 'NONE',  ( 0.0000000000000000000, 0.0000000000000000000, 3.000000000000000000 ) ) ;
#124 = AXIS2_PLACEMENT_3D ( 'NONE', #123, #122, #121 ) ;
#125 = CIRCLE ( 'NONE', #124, 12.44999999999999600 ) ;
#126 = FILL_AREA_STYLE_COLOUR ( '', #119 ) ;
#127 = DIRECTION ( 'NONE',  ( -0.7071067811865475700, 0.0000000000000000000, 0.7071067811865474600 ) ) ;
#128 = VECTOR ( 'NONE', #127, 1000.000000000000000 ) ;
#129 = CARTESIAN_POINT ( 'NONE',  ( 0.0000000000000000000, -3.843957612031114000E-015, 15.44999999999999600 ) ) ;
#130 = LINE ( 'NONE', #129, #128 ) ;
#131 = DIRECTION ( 'NONE',  ( 1.000000000000000000, 8.881784197001252300E-016, 0.0000000000000000000 ) ) ;
#132 = DIRECTION ( 'NONE',  ( 0.0000000000000000000, 0.0000000000000000000, -1.000000000000000000 ) ) ;
#133 = CARTESIAN_POINT ( 'NONE',  ( 0.0000000000000000000, 0.0000000000000000000, -3.000000000000000000 ) ) ;
#134 = AXIS2_PLACEMENT_3D ( 'NONE', #133, #132, #131 ) ;
#135 = CIRCLE ( 'NONE', #134, 12.45000000000000100 ) ;
#136 = DIRECTION ( 'NONE',  ( -1.000000000000000000, 0.0000000000000000000, 0.0000000000000000000 ) ) ;
#137 = VECTOR ( 'NONE', #136, 1000.000000000000000 ) ;
#138 = CARTESIAN_POINT ( 'NONE',  ( 12.69999999999999900, -2.710505431213761100E-015, 2.499999999999999600 ) ) ;
#139 = LINE ( 'NONE', #138, #137 ) ;
#140 = DIRECTION ( 'NONE',  ( -0.7071067811865475700, 0.0000000000000000000, -0.7071067811865474600 ) ) ;
#141 = VECTOR ( 'NONE', #140, 1000.000000000000000 ) ;
#142 = CARTESIAN_POINT ( 'NONE',  ( 0.0000000000000000000, -3.843957612031114000E-015, 15.44999999999999600 ) ) ;
#143 = LINE ( 'NONE', #142, #141 ) ;
#144 = CARTESIAN_POINT ( 'NONE',  ( 12.03823768940732500, 3.175426480542894700, -3.000000000000000000 ) ) ;
#145 = DIRECTION ( 'NONE',  ( 1.000000000000000000, 0.0000000000000000000, 0.0000000000000000000 ) ) ;
#146 = DIRECTION ( 'NONE',  ( 0.0000000000000000000, 0.0000000000000000000, 1.000000000000000000 ) ) ;
#147 = CARTESIAN_POINT ( 'NONE',  ( 0.0000000000000000000, 0.0000000000000000000, 3.000000000000000000 ) ) ;
#148 = AXIS2_PLACEMENT_3D ( 'NONE', #147, #146, #145 ) ;
#149 = PLANE ( 'NONE',  #148 ) ;
#150 = CARTESIAN_POINT ( 'NONE',  ( -12.03823768940732300, 3.175426480542894700, -3.000000000000000000 ) ) ;
#151 = PLANE ( 'NONE',  #293 ) ;
#152 = CARTESIAN_POINT ( 'NONE',  ( 12.33298422929342100, 3.031088913245494300, -2.750000000000003100 ) ) ;
#153 = CARTESIAN_POINT ( 'NONE',  ( 12.69999999999999900, -2.710505431213761100E-015, 2.499999999999999600 ) ) ;
#154 = DIRECTION ( 'NONE',  ( 0.0000000000000000000, 0.0000000000000000000, -1.000000000000000000 ) ) ;
#155 = VECTOR ( 'NONE', #154, 1000.000000000000000 ) ;
#156 = CARTESIAN_POINT ( 'NONE',  ( 12.69999999999999900, -3.843957612031114000E-015, 3.000000000000000000 ) ) ;
#157 = LINE ( 'NONE', #156, #155 ) ;
#158 = CARTESIAN_POINT ( 'NONE',  ( 12.69999999999999800, -3.843957612031114000E-015, 2.750000000000002200 ) ) ;
#159 = DIRECTION ( 'NONE',  ( 1.000000000000000000, 0.0000000000000000000, 0.0000000000000000000 ) ) ;
#160 = DIRECTION ( 'NONE',  ( 0.0000000000000000000, 0.0000000000000000000, -1.000000000000000000 ) ) ;
#161 = CARTESIAN_POINT ( 'NONE',  ( 0.0000000000000000000, 0.0000000000000000000, 2.749999999999996400 ) ) ;
#162 = AXIS2_PLACEMENT_3D ( 'NONE', #161, #160, #159 ) ;
#163 = CIRCLE ( 'NONE', #162, 12.69999999999999900 ) ;
#164 = CARTESIAN_POINT ( 'NONE',  ( -12.69999999999999900, -2.710505431213761100E-015, 2.499999999999999600 ) ) ;
#165 = CARTESIAN_POINT ( 'NONE',  ( -12.69999999999999900, -3.843957612031114000E-015, 2.749999999999996400 ) ) ;
#166 = DIRECTION ( 'NONE',  ( 0.0000000000000000000, 0.0000000000000000000, -1.000000000000000000 ) ) ;
#167 = VECTOR ( 'NONE', #166, 1000.000000000000000 ) ;
#168 = CARTESIAN_POINT ( 'NONE',  ( -12.69999999999999900, -3.843957612031114000E-015, 3.000000000000000000 ) ) ;
#169 = DIRECTION ( 'NONE',  ( -1.000000000000000000, 0.0000000000000000000, 0.0000000000000000000 ) ) ;
#170 = DIRECTION ( 'NONE',  ( 0.0000000000000000000, 0.0000000000000000000, -1.000000000000000000 ) ) ;
#171 = AXIS2_PLACEMENT_3D ( 'NONE', #174, #170, #169 ) ;
#172 = CYLINDRICAL_SURFACE ( 'NONE', #171, 12.69999999999999900 ) ;
#173 = LINE ( 'NONE', #168, #167 ) ;
#174 = CARTESIAN_POINT ( 'NONE',  ( 0.0000000000000000000, 0.0000000000000000000, 3.000000000000000000 ) ) ;
#175 =( GEOMETRIC_REPRESENTATION_CONTEXT ( 3 ) GLOBAL_UNCERTAINTY_ASSIGNED_CONTEXT ( ( #176 ) ) GLOBAL_UNIT_ASSIGNED_CONTEXT ( ( #179, #178, #177 ) ) REPRESENTATION_CONTEXT ( 'NONE', 'WORKASPACE' ) );
#176 = UNCERTAINTY_MEASURE_WITH_UNIT (LENGTH_MEASURE( 1.000000000000000100E-005 ), #179, 'distance_accuracy_value', 'NONE');
#177 =( NAMED_UNIT ( * ) SI_UNIT ( $, .STERADIAN. ) SOLID_ANGLE_UNIT ( ) );
#178 =( NAMED_UNIT ( * ) PLANE_ANGLE_UNIT ( ) SI_UNIT ( $, .RADIAN. ) );
#179 =( LENGTH_UNIT ( ) NAMED_UNIT ( * ) SI_UNIT ( .MILLI., .METRE. ) );
#180 = MECHANICAL_DESIGN_GEOMETRIC_PRESENTATION_REPRESENTATION (  '', ( #182 ), #175 ) ;
#181 = PRESENTATION_LAYER_ASSIGNMENT (  '', '', ( #182 ) ) ;
#182 = STYLED_ITEM ( 'NONE', ( #183 ), #22 ) ;
#183 = PRESENTATION_STYLE_ASSIGNMENT (( #184 ) ) ;
#184 = SURFACE_STYLE_USAGE ( .BOTH. , #185 ) ;
#185 = SURFACE_SIDE_STYLE ('',( #186 ) ) ;
#186 = SURFACE_STYLE_FILL_AREA ( #187 ) ;
#187 = FILL_AREA_STYLE ('',( #188 ) ) ;
#188 = FILL_AREA_STYLE_COLOUR ( '', #189 ) ;
#189 = COLOUR_RGB ( '',0.7529411764705882200, 0.7529411764705882200, 0.7529411764705882200 ) ;
#190 = FACE_OUTER_BOUND ( 'NONE', #20, .T. ) ;
#191 =( GEOMETRIC_REPRESENTATION_CONTEXT ( 3 ) GLOBAL_UNCERTAINTY_ASSIGNED_CONTEXT ( ( #192 ) ) GLOBAL_UNIT_ASSIGNED_CONTEXT ( ( #195, #194, #193 ) ) REPRESENTATION_CONTEXT ( 'NONE', 'WORKASPACE' ) );
#192 = UNCERTAINTY_MEASURE_WITH_UNIT (LENGTH_MEASURE( 1.000000000000000100E-005 ), #195, 'distance_accuracy_value', 'NONE');
#193 =( NAMED_UNIT ( * ) SI_UNIT ( $, .STERADIAN. ) SOLID_ANGLE_UNIT ( ) );
#194 =( NAMED_UNIT ( * ) PLANE_ANGLE_UNIT ( ) SI_UNIT ( $, .RADIAN. ) );
#195 =( LENGTH_UNIT ( ) NAMED_UNIT ( * ) SI_UNIT ( .MILLI., .METRE. ) );
#196 = MECHANICAL_DESIGN_GEOMETRIC_PRESENTATION_REPRESENTATION (  '', ( #198 ), #191 ) ;
#197 = PRESENTATION_LAYER_ASSIGNMENT (  '', '', ( #198 ) ) ;
#198 = STYLED_ITEM ( 'NONE', ( #199 ), #21 ) ;
#199 = PRESENTATION_STYLE_ASSIGNMENT (( #200 ) ) ;
#200 = SURFACE_STYLE_USAGE ( .BOTH. , #201 ) ;
#201 = SURFACE_SIDE_STYLE ('',( #202 ) ) ;
#202 = SURFACE_STYLE_FILL_AREA ( #233 ) ;
#203 = CONICAL_SURFACE ( 'NONE', #273, 12.44999999999999600, 0.7853981633974482800 ) ;
#204 = CARTESIAN_POINT ( 'NONE',  ( 0.0000000000000000000, 0.0000000000000000000, 3.000000000000000000 ) ) ;
#205 = FACE_OUTER_BOUND ( 'NONE', #53, .T. ) ;
#206 = CARTESIAN_POINT ( 'NONE',  ( 12.49999999999999300, -3.843957612031114000E-015, 2.950000000000002000 ) ) ;
#207 = DIRECTION ( 'NONE',  ( 0.0000000000000000000, 0.0000000000000000000, 1.000000000000000000 ) ) ;
#208 = DIRECTION ( 'NONE',  ( 0.0000000000000000000, 1.000000000000000000, 0.0000000000000000000 ) ) ;
#209 = CARTESIAN_POINT ( 'NONE',  ( -12.69999999999999900, -3.843957612031114000E-015, 3.000000000000000000 ) ) ;
#210 = AXIS2_PLACEMENT_3D ( 'NONE', #209, #208, #207 ) ;
#211 = PLANE ( 'NONE',  #210 ) ;
#212 =( GEOMETRIC_REPRESENTATION_CONTEXT ( 3 ) GLOBAL_UNCERTAINTY_ASSIGNED_CONTEXT ( ( #213 ) ) GLOBAL_UNIT_ASSIGNED_CONTEXT ( ( #216, #215, #214 ) ) REPRESENTATION_CONTEXT ( 'NONE', 'WORKASPACE' ) );
#213 = UNCERTAINTY_MEASURE_WITH_UNIT (LENGTH_MEASURE( 1.000000000000000100E-005 ), #216, 'distance_accuracy_value', 'NONE');
#214 =( NAMED_UNIT ( * ) SI_UNIT ( $, .STERADIAN. ) SOLID_ANGLE_UNIT ( ) );
#215 =( NAMED_UNIT ( * ) PLANE_ANGLE_UNIT ( ) SI_UNIT ( $, .RADIAN. ) );
#216 =( LENGTH_UNIT ( ) NAMED_UNIT ( * ) SI_UNIT ( .MILLI., .METRE. ) );
#217 = MECHANICAL_DESIGN_GEOMETRIC_PRESENTATION_REPRESENTATION (  '', ( #219 ), #212 ) ;
#218 = PRESENTATION_LAYER_ASSIGNMENT (  '', '', ( #219 ) ) ;
#219 = STYLED_ITEM ( 'NONE', ( #220 ), #45 ) ;
#220 = PRESENTATION_STYLE_ASSIGNMENT (( #221 ) ) ;
#221 = SURFACE_STYLE_USAGE ( .BOTH. , #222 ) ;
#222 = SURFACE_SIDE_STYLE ('',( #223 ) ) ;
#223 = SURFACE_STYLE_FILL_AREA ( #224 ) ;
#224 = FILL_AREA_STYLE ('',( #281 ) ) ;
#225 = COLOUR_RGB ( '',0.7529411764705882200, 0.7529411764705882200, 0.7529411764705882200 ) ;
#226 = CARTESIAN_POINT ( 'NONE',  ( -12.33298422929342100, 3.031088913245494300, -2.750000000000003100 ) ) ;
#227 = CARTESIAN_POINT ( 'NONE',  ( -12.57706715168255900, 2.037957098698390400, -1.029845238591324800 ) ) ;
#228 = FILL_AREA_STYLE_COLOUR ( '', #234 ) ;
#229 = DIRECTION ( 'NONE',  ( 1.000000000000000000, 0.0000000000000000000, 0.0000000000000000000 ) ) ;
#230 = DIRECTION ( 'NONE',  ( 0.0000000000000000000, 0.0000000000000000000, 1.000000000000000000 ) ) ;
#231 = AXIS2_PLACEMENT_3D ( 'NONE', #235, #230, #229 ) ;
#232 = CONICAL_SURFACE ( 'NONE', #231, 12.69999999999999900, 0.7853981633974518300 ) ;
#233 = FILL_AREA_STYLE ('',( #228 ) ) ;
#234 = COLOUR_RGB ( '',0.7529411764705882200, 0.7529411764705882200, 0.7529411764705882200 ) ;
#235 = CARTESIAN_POINT ( 'NONE',  ( 0.0000000000000000000, 0.0000000000000000000, -2.750000000000003100 ) ) ;
#236 =( GEOMETRIC_REPRESENTATION_CONTEXT ( 3 ) GLOBAL_UNCERTAINTY_ASSIGNED_CONTEXT ( ( #237 ) ) GLOBAL_UNIT_ASSIGNED_CONTEXT ( ( #240, #239, #238 ) ) REPRESENTATION_CONTEXT ( 'NONE', 'WORKASPACE' ) );
#237 = UNCERTAINTY_MEASURE_WITH_UNIT (LENGTH_MEASURE( 1.000000000000000100E-005 ), #240, 'distance_accuracy_value', 'NONE');
#238 =( NAMED_UNIT ( * ) SI_UNIT ( $, .STERADIAN. ) SOLID_ANGLE_UNIT ( ) );
#239 =( NAMED_UNIT ( * ) PLANE_ANGLE_UNIT ( ) SI_UNIT ( $, .RADIAN. ) );
#240 =( LENGTH_UNIT ( ) NAMED_UNIT ( * ) SI_UNIT ( .MILLI., .METRE. ) );
#241 = MECHANICAL_DESIGN_GEOMETRIC_PRESENTATION_REPRESENTATION (  '', ( #243 ), #236 ) ;
#242 = PRESENTATION_LAYER_ASSIGNMENT (  '', '', ( #243 ) ) ;
#243 = STYLED_ITEM ( 'NONE', ( #244 ), #16 ) ;
#244 = PRESENTATION_STYLE_ASSIGNMENT (( #245 ) ) ;
#245 = SURFACE_STYLE_USAGE ( .BOTH. , #250 ) ;
#246 = CARTESIAN_POINT ( 'NONE',  ( 12.33298422929342100, 3.031088913245494300, -2.750000000000003100 ) ) ;
#247 = CARTESIAN_POINT ( 'NONE',  ( 12.23503592802014800, 3.079354391075948900, -2.833598259853939500 ) ) ;
#248 = CARTESIAN_POINT ( 'NONE',  ( 12.13679148667596800, 3.127470135376015900, -2.916937173625653700 ) ) ;
#249 = CARTESIAN_POINT ( 'NONE',  ( 12.03823768940732500, 3.175426480542894700, -3.000000000000000000 ) ) ;
#250 = SURFACE_SIDE_STYLE ('',( #251 ) ) ;
#251 = SURFACE_STYLE_FILL_AREA ( #252 ) ;
#252 = FILL_AREA_STYLE ('',( #101 ) ) ;
#253 = UNCERTAINTY_MEASURE_WITH_UNIT (LENGTH_MEASURE( 1.000000000000000100E-005 ), #88, 'distance_accuracy_value', 'NONE');
#254 = FACE_OUTER_BOUND ( 'NONE', #63, .T. ) ;
#255 = CARTESIAN_POINT ( 'NONE',  ( 12.44989959798872900, 0.04999999999999064900, 3.000000000000000000 ) ) ;
#256 = DIRECTION ( 'NONE',  ( 1.000000000000000000, 0.0000000000000000000, 0.0000000000000000000 ) ) ;
#257 = VECTOR ( 'NONE', #256, 1000.000000000000000 ) ;
#258 = CARTESIAN_POINT ( 'NONE',  ( 12.69999999999999900, 0.04999999999999064900, 3.000000000000000000 ) ) ;
#259 = LINE ( 'NONE', #258, #257 ) ;
#260 = CARTESIAN_POINT ( 'NONE',  ( -12.44989959798872900, 0.04999999999999064900, 3.000000000000000000 ) ) ;
#261 = CARTESIAN_POINT ( 'NONE',  ( -12.49999999999999600, -3.843957612031114000E-015, 2.950000000000001500 ) ) ;
#262 = DIRECTION ( 'NONE',  ( -1.000000000000000000, 0.0000000000000000000, 0.0000000000000000000 ) ) ;
#263 = VECTOR ( 'NONE', #262, 1000.000000000000000 ) ;
#264 = CARTESIAN_POINT ( 'NONE',  ( -12.69999999999999900, -3.843957612031114000E-015, 2.950000000000002000 ) ) ;
#265 = CARTESIAN_POINT ( 'NONE',  ( 12.44989959798872900, 0.04999999999999064900, 3.000000000000000000 ) ) ;
#266 = CARTESIAN_POINT ( 'NONE',  ( 12.46662208080081200, 0.03334454143682914100, 2.983344541436837400 ) ) ;
#267 = CARTESIAN_POINT ( 'NONE',  ( 12.48332217009221200, 0.01667782990777865300, 2.966677829907785800 ) ) ;
#268 = CARTESIAN_POINT ( 'NONE',  ( 12.49999999999999300, -3.843957612031114000E-015, 2.950000000000002000 ) ) ;
#269 = LINE ( 'NONE', #264, #263 ) ;
#270 = B_SPLINE_CURVE_WITH_KNOTS ( 'NONE', 3,
 ( #268, #267, #266, #265 ),
 .UNSPECIFIED., .F., .F.,
 ( 4, 4 ),
 ( 0.0000000000000000000, 8.666054628081715900E-005 ),
 .UNSPECIFIED. ) ;
#271 = DIRECTION ( 'NONE',  ( -1.000000000000000000, 0.0000000000000000000, 0.0000000000000000000 ) ) ;
#272 = DIRECTION ( 'NONE',  ( 0.0000000000000000000, 0.0000000000000000000, -1.000000000000000000 ) ) ;
#273 = AXIS2_PLACEMENT_3D ( 'NONE', #204, #272, #271 ) ;
#274 =( GEOMETRIC_REPRESENTATION_CONTEXT ( 3 ) GLOBAL_UNCERTAINTY_ASSIGNED_CONTEXT ( ( #253 ) ) GLOBAL_UNIT_ASSIGNED_CONTEXT ( ( #88, #67, #66 ) ) REPRESENTATION_CONTEXT ( 'NONE', 'WORKASPACE' ) );
#275 = DIRECTION ( 'NONE',  ( 0.0000000000000000000, -0.8660254037844414800, -0.4999999999999951200 ) ) ;
#276 = CARTESIAN_POINT ( 'NONE',  ( 12.69999999999999900, -0.8424306789051854100, 3.959132737718538100 ) ) ;
#277 = AXIS2_PLACEMENT_3D ( 'NONE', #276, #275, #113 ) ;
#278 = PLANE ( 'NONE',  #277 ) ;
#279 = CARTESIAN_POINT ( 'NONE',  ( -12.70000000000000100, 1.022686302864979500, 0.7286553632330544600 ) ) ;
#280 = CARTESIAN_POINT ( 'NONE',  ( -12.69999999999999900, -2.710505431213761100E-015, 2.499999999999999600 ) ) ;
#281 = FILL_AREA_STYLE_COLOUR ( '', #225 ) ;
#282 =( BOUNDED_CURVE ( )  B_SPLINE_CURVE ( 3, ( #280, #279, #227, #226 ),
 .UNSPECIFIED., .F., .F. ) 
 B_SPLINE_CURVE_WITH_KNOTS ( ( 4, 4 ),
 ( 4.712388980384689700, 4.953383391855730600 ),
 .UNSPECIFIED. ) 
 CURVE ( )  GEOMETRIC_REPRESENTATION_ITEM ( )  RATIONAL_B_SPLINE_CURVE ( ( 1.000000000000000000, 0.9951659943615833700, 0.9951659943615833700, 1.000000000000000000 ) ) 
 REPRESENTATION_ITEM ( '' )  );
#283 = FACE_OUTER_BOUND ( 'NONE', #46, .T. ) ;
#284 = DIRECTION ( 'NONE',  ( 1.000000000000000000, 0.0000000000000000000, 0.0000000000000000000 ) ) ;
#285 = DIRECTION ( 'NONE',  ( 0.0000000000000000000, 0.0000000000000000000, 1.000000000000000000 ) ) ;
#286 = CARTESIAN_POINT ( 'NONE',  ( 0.0000000000000000000, 0.0000000000000000000, -2.750000000000003100 ) ) ;
#287 = AXIS2_PLACEMENT_3D ( 'NONE', #286, #285, #284 ) ;
#288 = CIRCLE ( 'NONE', #287, 12.69999999999999900 ) ;
#289 = CARTESIAN_POINT ( 'NONE',  ( -12.33298422929342100, 3.031088913245494300, -2.750000000000003100 ) ) ;
#290 = DIRECTION ( 'NONE',  ( 0.0000000000000000000, -0.7071067811865230400, -0.7071067811865721100 ) ) ;
#291 = DIRECTION ( 'NONE',  ( 0.0000000000000000000, -0.7071067811865721100, 0.7071067811865230400 ) ) ;
#292 = CARTESIAN_POINT ( 'NONE',  ( 0.0000000000000000000, 0.04999999999999064900, 3.000000000000000000 ) ) ;
#293 = AXIS2_PLACEMENT_3D ( 'NONE', #292, #291, #290 ) ;
#294 = FACE_OUTER_BOUND ( 'NONE', #39, .T. ) ;
#295 = CARTESIAN_POINT ( 'NONE',  ( 12.69999999999999900, -2.710505431213761100E-015, 2.499999999999999600 ) ) ;
#296 = CARTESIAN_POINT ( 'NONE',  ( 12.70000000000000100, 1.022686302864980000, 0.7286553632330540200 ) ) ;
#297 = CARTESIAN_POINT ( 'NONE',  ( 12.57706715168255900, 2.037957098698390400, -1.029845238591324800 ) ) ;
#298 = CARTESIAN_POINT ( 'NONE',  ( 12.33298422929342100, 3.031088913245494300, -2.750000000000003100 ) ) ;
#299 =( BOUNDED_CURVE ( )  B_SPLINE_CURVE ( 3, ( #298, #297, #296, #295 ),
 .UNSPECIFIED., .F., .T. ) 
 B_SPLINE_CURVE_WITH_KNOTS ( ( 4, 4 ),
 ( 1.329801915323855800, 1.570796326794896800 ),
 .UNSPECIFIED. ) 
 CURVE ( )  GEOMETRIC_REPRESENTATION_ITEM ( )  RATIONAL_B_SPLINE_CURVE ( ( 1.000000000000000000, 0.9951659943615833700, 0.9951659943615833700, 1.000000000000000000 ) ) 
 REPRESENTATION_ITEM ( '' )  );
#300 = STYLED_ITEM ( 'NONE', ( #114 ), #93 ) ;
#301 = ITEM_DEFINED_TRANSFORMATION ( 'NONE', 'NONE', #331,  #343 ) ;
#302 = PRODUCT_RELATED_PRODUCT_CATEGORY ( 'part', '', ( #310 ) ) ;
#303 = PRODUCT_DEFINITION_FORMATION_WITH_SPECIFIED_SOURCE ( 'ANY', '', #310, .NOT_KNOWN. ) ;
#304 =( REPRESENTATION_RELATIONSHIP ('NONE','NONE', #336, #339 ) REPRESENTATION_RELATIONSHIP_WITH_TRANSFORMATION ( #301 )SHAPE_REPRESENTATION_RELATIONSHIP( ) );
#305 = PRODUCT_DEFINITION ( 'UNKNOWN', '', #303, #306 ) ;
#306 = PRODUCT_DEFINITION_CONTEXT ( 'detailed design', #308, 'design' ) ;
#307 = APPLICATION_PROTOCOL_DEFINITION ( 'draft international standard', 'automotive_design', 1998, #308 ) ;
#308 = APPLICATION_CONTEXT ( 'automotive_design' ) ;
#309 = SHAPE_DEFINITION_REPRESENTATION ( #362, #339 ) ;
#310 = PRODUCT ( '15653-E0W', '15653-E0W', '', ( #311 ) ) ;
#311 = PRODUCT_CONTEXT ( 'NONE', #313, 'mechanical' ) ;
#312 = APPLICATION_PROTOCOL_DEFINITION ( 'draft international standard', 'automotive_design', 1998, #313 ) ;
#313 = APPLICATION_CONTEXT ( 'automotive_design' ) ;
#314 = APPLICATION_PROTOCOL_DEFINITION ( 'draft international standard', 'automotive_design', 1998, #315 ) ;
#315 = APPLICATION_CONTEXT ( 'automotive_design' ) ;
#316 = PRODUCT ( '15653-001_PFD10-03-F01 15653-001', '15653-001_PFD10-03-F01 15653-001', '', ( #317 ) ) ;
#317 = PRODUCT_CONTEXT ( 'NONE', #319, 'mechanical' ) ;
#318 = APPLICATION_PROTOCOL_DEFINITION ( 'draft international standard', 'automotive_design', 1998, #319 ) ;
#319 = APPLICATION_CONTEXT ( 'automotive_design' ) ;
#320 = PRESENTATION_LAYER_ASSIGNMENT (  '', '', ( #300 ) ) ;
#321 =( LENGTH_UNIT ( ) NAMED_UNIT ( * ) SI_UNIT ( .MILLI., .METRE. ) );
#322 = PLANE ( 'NONE',  #360 ) ;
#323 =( GEOMETRIC_REPRESENTATION_CONTEXT ( 3 ) GLOBAL_UNCERTAINTY_ASSIGNED_CONTEXT ( ( #324 ) ) GLOBAL_UNIT_ASSIGNED_CONTEXT ( ( #321, #326, #325 ) ) REPRESENTATION_CONTEXT ( 'NONE', 'WORKASPACE' ) );
#324 = UNCERTAINTY_MEASURE_WITH_UNIT (LENGTH_MEASURE( 1.000000000000000100E-005 ), #321, 'distance_accuracy_value', 'NONE');
#325 =( NAMED_UNIT ( * ) SI_UNIT ( $, .STERADIAN. ) SOLID_ANGLE_UNIT ( ) );
#326 =( NAMED_UNIT ( * ) PLANE_ANGLE_UNIT ( ) SI_UNIT ( $, .RADIAN. ) );
#327 =( LENGTH_UNIT ( ) NAMED_UNIT ( * ) SI_UNIT ( .MILLI., .METRE. ) );
#328 = DIRECTION ( 'NONE',  ( 1.000000000000000000, 0.0000000000000000000, 0.0000000000000000000 ) ) ;
#329 = DIRECTION ( 'NONE',  ( 0.0000000000000000000, 0.0000000000000000000, 1.000000000000000000 ) ) ;
#330 = CARTESIAN_POINT ( 'NONE',  ( -16.62652143141940500, 21.06465689859979000, -9.851524539215006400 ) ) ;
#331 = AXIS2_PLACEMENT_3D ( 'NONE', #330, #329, #328 ) ;
#332 = DIRECTION ( 'NONE',  ( 1.000000000000000000, 0.0000000000000000000, 0.0000000000000000000 ) ) ;
#333 = DIRECTION ( 'NONE',  ( 0.0000000000000000000, 0.0000000000000000000, 1.000000000000000000 ) ) ;
#334 = CARTESIAN_POINT ( 'NONE',  ( 0.0000000000000000000, 0.0000000000000000000, 0.0000000000000000000 ) ) ;
#335 = AXIS2_PLACEMENT_3D ( 'NONE', #334, #333, #332 ) ;
#336 = SHAPE_REPRESENTATION ( '15653-E0W', ( #351, #331 ), #372 ) ;
#337 = MECHANICAL_DESIGN_GEOMETRIC_PRESENTATION_REPRESENTATION (  '', ( #300 ), #323 ) ;
#338 = SHAPE_REPRESENTATION_RELATIONSHIP ( 'NONE' , 'NONE' ,  #339, #344 ) ;
#339 = SHAPE_REPRESENTATION ( '15653-001_PFD10-03-F01 15653-001', ( #343 ), #345 ) ;
#340 = DIRECTION ( 'NONE',  ( 1.000000000000000000, 0.0000000000000000000, 0.0000000000000000000 ) ) ;
#341 = DIRECTION ( 'NONE',  ( 0.0000000000000000000, 0.0000000000000000000, 1.000000000000000000 ) ) ;
#342 = CARTESIAN_POINT ( 'NONE',  ( 0.0000000000000000000, 0.0000000000000000000, 0.0000000000000000000 ) ) ;
#343 = AXIS2_PLACEMENT_3D ( 'NONE', #342, #341, #340 ) ;
#344 = ADVANCED_BREP_SHAPE_REPRESENTATION ( '', ( #21, #343 ), #345 ) ;
#345 =( GEOMETRIC_REPRESENTATION_CONTEXT ( 3 ) GLOBAL_UNCERTAINTY_ASSIGNED_CONTEXT ( ( #346 ) ) GLOBAL_UNIT_ASSIGNED_CONTEXT ( ( #349, #348, #347 ) ) REPRESENTATION_CONTEXT ( 'NONE', 'WORKASPACE' ) );
#346 = UNCERTAINTY_MEASURE_WITH_UNIT (LENGTH_MEASURE( 1.000000000000000100E-005 ), #349, 'distance_accuracy_value', 'NONE');
#347 =( NAMED_UNIT ( * ) SI_UNIT ( $, .STERADIAN. ) SOLID_ANGLE_UNIT ( ) );
#348 =( NAMED_UNIT ( * ) PLANE_ANGLE_UNIT ( ) SI_UNIT ( $, .RADIAN. ) );
#349 =( LENGTH_UNIT ( ) NAMED_UNIT ( * ) SI_UNIT ( .MILLI., .METRE. ) );
#350 = DIRECTION ( 'NONE',  ( 0.0000000000000000000, 0.0000000000000000000, 1.000000000000000000 ) ) ;
#351 = AXIS2_PLACEMENT_3D ( 'NONE', #352, #350, #371 ) ;
#352 = CARTESIAN_POINT ( 'NONE',  ( 0.0000000000000000000, 0.0000000000000000000, 0.0000000000000000000 ) ) ;
#353 = DIRECTION ( 'NONE',  ( 1.000000000000000000, 0.0000000000000000000, 0.0000000000000000000 ) ) ;
#354 = VECTOR ( 'NONE', #353, 1000.000000000000000 ) ;
#355 = CARTESIAN_POINT ( 'NONE',  ( 0.0000000000000000000, 3.175426480542894700, -3.000000000000000000 ) ) ;
#356 = LINE ( 'NONE', #355, #354 ) ;
#357 = DIRECTION ( 'NONE',  ( 1.000000000000000000, 0.0000000000000000000, 0.0000000000000000000 ) ) ;
#358 = DIRECTION ( 'NONE',  ( 0.0000000000000000000, 0.0000000000000000000, 1.000000000000000000 ) ) ;
#359 = CARTESIAN_POINT ( 'NONE',  ( 0.0000000000000000000, 0.0000000000000000000, -3.000000000000000000 ) ) ;
#360 = AXIS2_PLACEMENT_3D ( 'NONE', #359, #358, #357 ) ;
#361 = PRODUCT_DEFINITION_SHAPE ( 'NONE', 'NONE',  #305 ) ;
#362 = PRODUCT_DEFINITION_SHAPE ( 'NONE', 'NONE',  #365 ) ;
#363 = PRODUCT_RELATED_PRODUCT_CATEGORY ( 'part', '', ( #316 ) ) ;
#364 = PRODUCT_DEFINITION_FORMATION_WITH_SPECIFIED_SOURCE ( 'ANY', '', #316, .NOT_KNOWN. ) ;
#365 = PRODUCT_DEFINITION ( 'UNKNOWN', '', #364, #366 ) ;
#366 = PRODUCT_DEFINITION_CONTEXT ( 'detailed design', #315, 'design' ) ;
#367 = CONTEXT_DEPENDENT_SHAPE_REPRESENTATION ( #304, #369 ) ;
#368 = NEXT_ASSEMBLY_USAGE_OCCURRENCE ( 'NAUO1', ' ', ' ', #305, #365, $ ) ;
#369 = PRODUCT_DEFINITION_SHAPE ( 'NONE', 'NONE',  #368 ) ;
#370 = SHAPE_DEFINITION_REPRESENTATION ( #361, #336 ) ;
#371 = DIRECTION ( 'NONE',  ( 1.000000000000000000, 0.0000000000000000000, 0.0000000000000000000 ) ) ;
#372 =( GEOMETRIC_REPRESENTATION_CONTEXT ( 3 ) GLOBAL_UNCERTAINTY_ASSIGNED_CONTEXT ( ( #373 ) ) GLOBAL_UNIT_ASSIGNED_CONTEXT ( ( #327, #375, #374 ) ) REPRESENTATION_CONTEXT ( 'NONE', 'WORKASPACE' ) );
#373 = UNCERTAINTY_MEASURE_WITH_UNIT (LENGTH_MEASURE( 1.000000000000000100E-005 ), #327, 'distance_accuracy_value', 'NONE');
#374 =( NAMED_UNIT ( * ) SI_UNIT ( $, .STERADIAN. ) SOLID_ANGLE_UNIT ( ) );
#375 =( NAMED_UNIT ( * ) PLANE_ANGLE_UNIT ( ) SI_UNIT ( $, .RADIAN. ) );
ENDSEC;
END-ISO-10303-21;
