ISO-10303-21;
HEADER;
FILE_DESCRIPTION (( 'STEP AP203' ),
    '1' );
FILE_NAME ('Web Model 39397_39436.step',
    '2018-10-05T20:49:56',
    ( '' ),
    ( '' ),
    'SwSTEP 2.0',
    'SolidWorks 2016',
    '' );
FILE_SCHEMA (( 'CONFIG_CONTROL_DESIGN' ));
ENDSEC;

DATA;
#1 = CC_DESIGN_APPROVAL ( #9, ( #108 ) ) ;
#2 = PRODUCT ( 'Web Model 39397_39436', 'Web Model 39397_39436', '', ( #19 ) ) ;
#3 = PLANE ( 'NONE',  #151 ) ;
#4 = VERTEX_POINT ( 'NONE', #128 ) ;
#5 = DIRECTION ( 'NONE',  ( 1.000000000000000000, 0.0000000000000000000, 0.0000000000000000000 ) ) ;
#6 = CARTESIAN_POINT ( 'NONE',  ( 12.69999999999999900, 1.555301434917138400E-015, 1.500000000000000000 ) ) ;
#7 = UNCERTAINTY_MEASURE_WITH_UNIT (LENGTH_MEASURE( 1.000000000000000100E-005 ), #69, 'distance_accuracy_value', 'NONE');
#8 = APPLICATION_PROTOCOL_DEFINITION ( 'international standard', 'config_control_design', 1994, #118 ) ;
#9 = APPROVAL ( #32, 'UNSPECIFIED' ) ;
#10 = PERSON_AND_ORGANIZATION_ROLE ( 'design_owner' ) ;
#11 = CALENDAR_DATE ( 2018, 5, 10 ) ;
#12 = PERSON_AND_ORGANIZATION ( #112, #147 ) ;
#13 = FACE_OUTER_BOUND ( 'NONE', #104, .T. ) ;
#14 = PRODUCT_DEFINITION ( 'UNKNOWN', '', #108, #65 ) ;
#15 = PERSON_AND_ORGANIZATION ( #112, #147 ) ;
#16 = CARTESIAN_POINT ( 'NONE',  ( 0.0000000000000000000, 0.0000000000000000000, 1.500000000000000000 ) ) ;
#17 = APPROVAL_STATUS ( 'not_yet_approved' ) ;
#18 = DATE_TIME_ROLE ( 'creation_date' ) ;
#19 = MECHANICAL_CONTEXT ( 'NONE', #105, 'mechanical' ) ;
#20 = PERSON_AND_ORGANIZATION_ROLE ( 'design_supplier' ) ;
#21 = VECTOR ( 'NONE', #148, 1000.000000000000000 ) ;
#22 = CC_DESIGN_PERSON_AND_ORGANIZATION_ASSIGNMENT ( #42, #123, ( #131 ) ) ;
#23 = COORDINATED_UNIVERSAL_TIME_OFFSET ( 5, 0, .BEHIND. ) ;
#24 = FACE_OUTER_BOUND ( 'NONE', #159, .T. ) ;
#25 = AXIS2_PLACEMENT_3D ( 'NONE', #66, #170, #43 ) ;
#26 = EDGE_LOOP ( 'NONE', ( #61, #63 ) ) ;
#27 = PERSON_AND_ORGANIZATION ( #112, #147 ) ;
#28 = CLOSED_SHELL ( 'NONE', ( #86, #115, #152, #107 ) ) ;
#29 = CC_DESIGN_DATE_AND_TIME_ASSIGNMENT ( #103, #119, ( #131 ) ) ;
#30 = MANIFOLD_SOLID_BREP ( 'Boss-Extrude1', #28 ) ;
#31 = APPROVAL_STATUS ( 'not_yet_approved' ) ;
#32 = APPROVAL_STATUS ( 'not_yet_approved' ) ;
#33 = DIRECTION ( 'NONE',  ( 1.000000000000000000, 0.0000000000000000000, 0.0000000000000000000 ) ) ;
#34 = ORIENTED_EDGE ( 'NONE', *, *, #93, .F. ) ;
#35 = SECURITY_CLASSIFICATION_LEVEL ( 'unclassified' ) ;
#36 = COORDINATED_UNIVERSAL_TIME_OFFSET ( 5, 0, .BEHIND. ) ;
#37 = APPROVAL_DATE_TIME ( #47, #38 ) ;
#38 = APPROVAL ( #31, 'UNSPECIFIED' ) ;
#39 = CARTESIAN_POINT ( 'NONE',  ( 12.69999999999999900, 1.555301434917138400E-015, 1.500000000000000000 ) ) ;
#40 = COORDINATED_UNIVERSAL_TIME_OFFSET ( 5, 0, .BEHIND. ) ;
#41 = CARTESIAN_POINT ( 'NONE',  ( -12.69999999999999900, 0.0000000000000000000, 1.500000000000000000 ) ) ;
#42 = PERSON_AND_ORGANIZATION ( #112, #147 ) ;
#43 = DIRECTION ( 'NONE',  ( 1.000000000000000000, 0.0000000000000000000, 0.0000000000000000000 ) ) ;
#44 = DIRECTION ( 'NONE',  ( 1.000000000000000000, 0.0000000000000000000, 0.0000000000000000000 ) ) ;
#45 = CIRCLE ( 'NONE', #175, 12.69999999999999900 ) ;
#46 = APPROVAL ( #17, 'UNSPECIFIED' ) ;
#47 = DATE_AND_TIME ( #55, #89 ) ;
#48 = CC_DESIGN_DATE_AND_TIME_ASSIGNMENT ( #76, #18, ( #14 ) ) ;
#49 = CIRCLE ( 'NONE', #136, 12.69999999999999900 ) ;
#50 = CARTESIAN_POINT ( 'NONE',  ( 0.0000000000000000000, 0.0000000000000000000, 1.500000000000000000 ) ) ;
#51 = VERTEX_POINT ( 'NONE', #132 ) ;
#52 = APPROVAL_ROLE ( '' ) ;
#53 = EDGE_CURVE ( 'NONE', #4, #51, #74, .T. ) ;
#54 = DIRECTION ( 'NONE',  ( 0.0000000000000000000, 0.0000000000000000000, 1.000000000000000000 ) ) ;
#55 = CALENDAR_DATE ( 2018, 5, 10 ) ;
#56 = ORIENTED_EDGE ( 'NONE', *, *, #93, .T. ) ;
#57 = APPROVAL_ROLE ( '' ) ;
#58 = DIRECTION ( 'NONE',  ( 0.0000000000000000000, 0.0000000000000000000, 1.000000000000000000 ) ) ;
#59 = CC_DESIGN_APPROVAL ( #38, ( #131 ) ) ;
#60 = CALENDAR_DATE ( 2018, 5, 10 ) ;
#61 = ORIENTED_EDGE ( 'NONE', *, *, #96, .T. ) ;
#62 = AXIS2_PLACEMENT_3D ( 'NONE', #75, #172, #145 ) ;
#63 = ORIENTED_EDGE ( 'NONE', *, *, #165, .T. ) ;
#64 = EDGE_CURVE ( 'NONE', #111, #51, #121, .T. ) ;
#65 = DESIGN_CONTEXT ( 'detailed design', #118, 'design' ) ;
#66 = CARTESIAN_POINT ( 'NONE',  ( 0.0000000000000000000, 0.0000000000000000000, 1.500000000000000000 ) ) ;
#67 = CARTESIAN_POINT ( 'NONE',  ( 0.0000000000000000000, 0.0000000000000000000, -1.500000000000000000 ) ) ;
#68 = DIRECTION ( 'NONE',  ( -1.000000000000000000, 0.0000000000000000000, 0.0000000000000000000 ) ) ;
#69 =( LENGTH_UNIT ( ) NAMED_UNIT ( * ) SI_UNIT ( .MILLI., .METRE. ) );
#70 =( NAMED_UNIT ( * ) SI_UNIT ( $, .STERADIAN. ) SOLID_ANGLE_UNIT ( ) );
#71 = PERSON_AND_ORGANIZATION_ROLE ( 'creator' ) ;
#72 = CARTESIAN_POINT ( 'NONE',  ( -12.69999999999999900, 0.0000000000000000000, 1.500000000000000000 ) ) ;
#73 = SHAPE_DEFINITION_REPRESENTATION ( #166, #80 ) ;
#74 = CIRCLE ( 'NONE', #99, 12.69999999999999900 ) ;
#75 = CARTESIAN_POINT ( 'NONE',  ( 0.0000000000000000000, 0.0000000000000000000, 1.500000000000000000 ) ) ;
#76 = DATE_AND_TIME ( #94, #97 ) ;
#77 =( GEOMETRIC_REPRESENTATION_CONTEXT ( 3 ) GLOBAL_UNCERTAINTY_ASSIGNED_CONTEXT ( ( #7 ) ) GLOBAL_UNIT_ASSIGNED_CONTEXT ( ( #69, #116, #70 ) ) REPRESENTATION_CONTEXT ( 'NONE', 'WORKASPACE' ) );
#78 = APPROVAL_PERSON_ORGANIZATION ( #174, #46, #57 ) ;
#79 = PERSON_AND_ORGANIZATION ( #112, #147 ) ;
#80 = ADVANCED_BREP_SHAPE_REPRESENTATION ( 'Web Model 39397_39436', ( #30, #81 ), #77 ) ;
#81 = AXIS2_PLACEMENT_3D ( 'NONE', #106, #58, #33 ) ;
#82 = DIRECTION ( 'NONE',  ( 0.0000000000000000000, 0.0000000000000000000, 1.000000000000000000 ) ) ;
#83 = PERSON_AND_ORGANIZATION ( #112, #147 ) ;
#84 = ORIENTED_EDGE ( 'NONE', *, *, #165, .F. ) ;
#85 = CARTESIAN_POINT ( 'NONE',  ( 0.0000000000000000000, 0.0000000000000000000, 1.500000000000000000 ) ) ;
#86 = ADVANCED_FACE ( 'NONE', ( #137 ), #160, .T. ) ;
#87 = CC_DESIGN_PERSON_AND_ORGANIZATION_ASSIGNMENT ( #79, #135, ( #14 ) ) ;
#88 = DIRECTION ( 'NONE',  ( 1.000000000000000000, 0.0000000000000000000, -0.0000000000000000000 ) ) ;
#89 = LOCAL_TIME ( 16, 49, 56.00000000000000000, #126 ) ;
#90 = DIRECTION ( 'NONE',  ( -1.000000000000000000, 0.0000000000000000000, 0.0000000000000000000 ) ) ;
#91 = APPLICATION_PROTOCOL_DEFINITION ( 'international standard', 'config_control_design', 1994, #105 ) ;
#92 = ORIENTED_EDGE ( 'NONE', *, *, #53, .F. ) ;
#93 = EDGE_CURVE ( 'NONE', #51, #4, #45, .T. ) ;
#94 = CALENDAR_DATE ( 2018, 5, 10 ) ;
#95 = ORIENTED_EDGE ( 'NONE', *, *, #64, .T. ) ;
#96 = EDGE_CURVE ( 'NONE', #142, #111, #140, .T. ) ;
#97 = LOCAL_TIME ( 16, 49, 56.00000000000000000, #36 ) ;
#98 = ORIENTED_EDGE ( 'NONE', *, *, #53, .T. ) ;
#99 = AXIS2_PLACEMENT_3D ( 'NONE', #150, #168, #5 ) ;
#100 = APPROVAL_PERSON_ORGANIZATION ( #169, #38, #52 ) ;
#101 = ORIENTED_EDGE ( 'NONE', *, *, #96, .F. ) ;
#102 = CARTESIAN_POINT ( 'NONE',  ( 0.0000000000000000000, 0.0000000000000000000, -1.500000000000000000 ) ) ;
#103 = DATE_AND_TIME ( #11, #158 ) ;
#104 = EDGE_LOOP ( 'NONE', ( #130, #101, #167, #98 ) ) ;
#105 = APPLICATION_CONTEXT ( 'configuration controlled 3d designs of mechanical parts and assemblies' ) ;
#106 = CARTESIAN_POINT ( 'NONE',  ( 0.0000000000000000000, 0.0000000000000000000, 0.0000000000000000000 ) ) ;
#107 = ADVANCED_FACE ( 'NONE', ( #24 ), #3, .F. ) ;
#108 = PRODUCT_DEFINITION_FORMATION_WITH_SPECIFIED_SOURCE ( 'ANY', '', #2, .NOT_KNOWN. ) ;
#109 = PLANE ( 'NONE',  #62 ) ;
#110 = CC_DESIGN_SECURITY_CLASSIFICATION ( #131, ( #108 ) ) ;
#111 = VERTEX_POINT ( 'NONE', #39 ) ;
#112 = PERSON ( 'UNSPECIFIED', 'UNSPECIFIED', 'UNSPECIFIED', ('UNSPECIFIED'), ('UNSPECIFIED'), ('UNSPECIFIED') ) ;
#113 = VECTOR ( 'NONE', #154, 1000.000000000000000 ) ;
#114 = DIRECTION ( 'NONE',  ( -0.0000000000000000000, -0.0000000000000000000, -1.000000000000000000 ) ) ;
#115 = ADVANCED_FACE ( 'NONE', ( #13 ), #127, .T. ) ;
#116 =( NAMED_UNIT ( * ) PLANE_ANGLE_UNIT ( ) SI_UNIT ( $, .RADIAN. ) );
#117 = EDGE_CURVE ( 'NONE', #142, #4, #164, .T. ) ;
#118 = APPLICATION_CONTEXT ( 'configuration controlled 3d designs of mechanical parts and assemblies' ) ;
#119 = DATE_TIME_ROLE ( 'classification_date' ) ;
#120 = APPROVAL_PERSON_ORGANIZATION ( #15, #9, #155 ) ;
#121 = LINE ( 'NONE', #6, #21 ) ;
#122 = DIRECTION ( 'NONE',  ( 0.0000000000000000000, 0.0000000000000000000, 1.000000000000000000 ) ) ;
#123 = PERSON_AND_ORGANIZATION_ROLE ( 'classification_officer' ) ;
#124 = AXIS2_PLACEMENT_3D ( 'NONE', #50, #114, #68 ) ;
#125 = CC_DESIGN_PERSON_AND_ORGANIZATION_ASSIGNMENT ( #83, #71, ( #108 ) ) ;
#126 = COORDINATED_UNIVERSAL_TIME_OFFSET ( 5, 0, .BEHIND. ) ;
#127 = CYLINDRICAL_SURFACE ( 'NONE', #161, 12.69999999999999900 ) ;
#128 = CARTESIAN_POINT ( 'NONE',  ( -12.69999999999999900, 0.0000000000000000000, -1.500000000000000000 ) ) ;
#129 = DATE_AND_TIME ( #60, #163 ) ;
#130 = ORIENTED_EDGE ( 'NONE', *, *, #64, .F. ) ;
#131 = SECURITY_CLASSIFICATION ( '', '', #35 ) ;
#132 = CARTESIAN_POINT ( 'NONE',  ( 12.69999999999999900, 1.555301434917138400E-015, -1.500000000000000000 ) ) ;
#133 = APPROVAL_DATE_TIME ( #149, #9 ) ;
#134 = FACE_OUTER_BOUND ( 'NONE', #26, .T. ) ;
#135 = PERSON_AND_ORGANIZATION_ROLE ( 'creator' ) ;
#136 = AXIS2_PLACEMENT_3D ( 'NONE', #16, #122, #44 ) ;
#137 = FACE_OUTER_BOUND ( 'NONE', #171, .T. ) ;
#138 = ORIENTED_EDGE ( 'NONE', *, *, #117, .F. ) ;
#139 = CC_DESIGN_PERSON_AND_ORGANIZATION_ASSIGNMENT ( #27, #20, ( #108 ) ) ;
#140 = CIRCLE ( 'NONE', #25, 12.69999999999999900 ) ;
#141 = CC_DESIGN_APPROVAL ( #46, ( #14 ) ) ;
#142 = VERTEX_POINT ( 'NONE', #72 ) ;
#143 = DIRECTION ( 'NONE',  ( 1.000000000000000000, 0.0000000000000000000, 0.0000000000000000000 ) ) ;
#144 = CC_DESIGN_PERSON_AND_ORGANIZATION_ASSIGNMENT ( #12, #10, ( #2 ) ) ;
#145 = DIRECTION ( 'NONE',  ( 1.000000000000000000, 0.0000000000000000000, -0.0000000000000000000 ) ) ;
#146 = PRODUCT_RELATED_PRODUCT_CATEGORY ( 'detail', '', ( #2 ) ) ;
#147 = ORGANIZATION ( 'UNSPECIFIED', 'UNSPECIFIED', '' ) ;
#148 = DIRECTION ( 'NONE',  ( -0.0000000000000000000, -0.0000000000000000000, -1.000000000000000000 ) ) ;
#149 = DATE_AND_TIME ( #157, #173 ) ;
#150 = CARTESIAN_POINT ( 'NONE',  ( 0.0000000000000000000, 0.0000000000000000000, -1.500000000000000000 ) ) ;
#151 = AXIS2_PLACEMENT_3D ( 'NONE', #102, #54, #88 ) ;
#152 = ADVANCED_FACE ( 'NONE', ( #134 ), #109, .T. ) ;
#153 = DIRECTION ( 'NONE',  ( -0.0000000000000000000, -0.0000000000000000000, -1.000000000000000000 ) ) ;
#154 = DIRECTION ( 'NONE',  ( -0.0000000000000000000, -0.0000000000000000000, -1.000000000000000000 ) ) ;
#155 = APPROVAL_ROLE ( '' ) ;
#156 = COORDINATED_UNIVERSAL_TIME_OFFSET ( 5, 0, .BEHIND. ) ;
#157 = CALENDAR_DATE ( 2018, 5, 10 ) ;
#158 = LOCAL_TIME ( 16, 49, 56.00000000000000000, #40 ) ;
#159 = EDGE_LOOP ( 'NONE', ( #92, #34 ) ) ;
#160 = CYLINDRICAL_SURFACE ( 'NONE', #124, 12.69999999999999900 ) ;
#161 = AXIS2_PLACEMENT_3D ( 'NONE', #85, #153, #90 ) ;
#162 = APPROVAL_DATE_TIME ( #129, #46 ) ;
#163 = LOCAL_TIME ( 16, 49, 56.00000000000000000, #23 ) ;
#164 = LINE ( 'NONE', #41, #113 ) ;
#165 = EDGE_CURVE ( 'NONE', #111, #142, #49, .T. ) ;
#166 = PRODUCT_DEFINITION_SHAPE ( 'NONE', 'NONE',  #14 ) ;
#167 = ORIENTED_EDGE ( 'NONE', *, *, #117, .T. ) ;
#168 = DIRECTION ( 'NONE',  ( 0.0000000000000000000, 0.0000000000000000000, 1.000000000000000000 ) ) ;
#169 = PERSON_AND_ORGANIZATION ( #112, #147 ) ;
#170 = DIRECTION ( 'NONE',  ( 0.0000000000000000000, 0.0000000000000000000, 1.000000000000000000 ) ) ;
#171 = EDGE_LOOP ( 'NONE', ( #84, #95, #56, #138 ) ) ;
#172 = DIRECTION ( 'NONE',  ( 0.0000000000000000000, 0.0000000000000000000, 1.000000000000000000 ) ) ;
#173 = LOCAL_TIME ( 16, 49, 56.00000000000000000, #156 ) ;
#174 = PERSON_AND_ORGANIZATION ( #112, #147 ) ;
#175 = AXIS2_PLACEMENT_3D ( 'NONE', #67, #82, #143 ) ;
ENDSEC;
END-ISO-10303-21;
