ISO-10303-21;
HEADER;
FILE_DESCRIPTION (( 'STEP AP214' ),
    '1' );
FILE_NAME ('3328-E0W.STEP',
    '2010-08-27T13:06:08',
    ( 'Admin' ),
    ( 'Thorlabs, Inc.' ),
    'SwSTEP 2.0',
    'SolidWorks 2009',
    '' );
FILE_SCHEMA (( 'AUTOMOTIVE_DESIGN' ));
ENDSEC;

DATA;
#1 = EDGE_CURVE ( 'NONE', #2, #7, #59, .T. ) ;
#2 = VERTEX_POINT ( 'NONE', #47 ) ;
#3 = ORIENTED_EDGE ( 'NONE', *, *, #32, .F. ) ;
#4 = ORIENTED_EDGE ( 'NONE', *, *, #6, .T. ) ;
#5 = ADVANCED_FACE ( 'NONE', ( #63 ), #77, .T. ) ;
#6 = EDGE_CURVE ( 'NONE', #10, #7, #83, .T. ) ;
#7 = VERTEX_POINT ( 'NONE', #82 ) ;
#8 = ORIENTED_EDGE ( 'NONE', *, *, #1, .F. ) ;
#9 = MANIFOLD_SOLID_BREP ( 'NONE', #19 ) ;
#10 = VERTEX_POINT ( 'NONE', #105 ) ;
#11 = ORIENTED_EDGE ( 'NONE', *, *, #13, .F. ) ;
#12 = EDGE_LOOP ( 'NONE', ( #16, #18, #22, #21 ) ) ;
#13 = EDGE_CURVE ( 'NONE', #10, #57, #103, .T. ) ;
#14 = ORIENTED_EDGE ( 'NONE', *, *, #30, .F. ) ;
#15 = ORIENTED_EDGE ( 'NONE', *, *, #35, .T. ) ;
#16 = ORIENTED_EDGE ( 'NONE', *, *, #6, .F. ) ;
#17 = ADVANCED_FACE ( 'NONE', ( #117 ), #121, .T. ) ;
#18 = ORIENTED_EDGE ( 'NONE', *, *, #13, .T. ) ;
#19 = CLOSED_SHELL ( 'NONE', ( #5, #33, #28, #66, #17 ) ) ;
#20 = EDGE_LOOP ( 'NONE', ( #34, #37, #31 ) ) ;
#21 = ORIENTED_EDGE ( 'NONE', *, *, #60, .F. ) ;
#22 = ORIENTED_EDGE ( 'NONE', *, *, #32, .T. ) ;
#23 = PRODUCT_DEFINITION_FORMATION_WITH_SPECIFIED_SOURCE ( 'ANY', '', #139, .NOT_KNOWN. ) ;
#24 = PRODUCT_DEFINITION ( 'UNKNOWN', '', #23, #136 ) ;
#25 = EDGE_LOOP ( 'NONE', ( #14, #15, #11 ) ) ;
#26 = PRODUCT_DEFINITION_SHAPE ( 'NONE', 'NONE',  #24 ) ;
#27 = PRODUCT_RELATED_PRODUCT_CATEGORY ( 'part', '', ( #139 ) ) ;
#28 = ADVANCED_FACE ( 'NONE', ( #133 ), #262, .T. ) ;
#29 = EDGE_LOOP ( 'NONE', ( #58, #55 ) ) ;
#30 = EDGE_CURVE ( 'NONE', #36, #10, #261, .T. ) ;
#31 = ORIENTED_EDGE ( 'NONE', *, *, #65, .F. ) ;
#32 = EDGE_CURVE ( 'NONE', #57, #2, #251, .T. ) ;
#33 = ADVANCED_FACE ( 'NONE', ( #247 ), #157, .T. ) ;
#34 = ORIENTED_EDGE ( 'NONE', *, *, #35, .F. ) ;
#35 = EDGE_CURVE ( 'NONE', #36, #57, #156, .T. ) ;
#36 = VERTEX_POINT ( 'NONE', #197 ) ;
#37 = ORIENTED_EDGE ( 'NONE', *, *, #30, .T. ) ;
#38 = EDGE_LOOP ( 'NONE', ( #56, #4, #8, #3 ) ) ;
#39 =( CONVERSION_BASED_UNIT ( 'INCH', #40 ) LENGTH_UNIT ( ) NAMED_UNIT ( #41 ) );
#40 = LENGTH_MEASURE_WITH_UNIT ( LENGTH_MEASURE( 0.02539999999999999900 ), #42 );
#41 = DIMENSIONAL_EXPONENTS ( 1.000000000000000000, 0.0000000000000000000, 0.0000000000000000000, 0.0000000000000000000, 0.0000000000000000000, 0.0000000000000000000, 0.0000000000000000000 ) ;
#42 =( LENGTH_UNIT ( ) NAMED_UNIT ( * ) SI_UNIT ( $, .METRE. ) );
#43 = DIRECTION ( 'NONE',  ( -0.0000000000000000000, 3.061515884555943600E-016, -1.000000000000000000 ) ) ;
#44 = CARTESIAN_POINT ( 'NONE',  ( 0.0000000000000000000, 6.759441370310921900E-017, -0.1480314960629922900 ) ) ;
#45 = AXIS2_PLACEMENT_3D ( 'NONE', #44, #43, #64 ) ;
#46 = FILL_AREA_STYLE ('',( #61 ) ) ;
#47 = CARTESIAN_POINT ( 'NONE',  ( 0.0000000000000000000, 0.5000000000000000000, -0.1480314960629921200 ) ) ;
#48 = STYLED_ITEM ( 'NONE', ( #49 ), #5 ) ;
#49 = PRESENTATION_STYLE_ASSIGNMENT (( #50 ) ) ;
#50 = SURFACE_STYLE_USAGE ( .BOTH. , #51 ) ;
#51 = SURFACE_SIDE_STYLE ('',( #52 ) ) ;
#52 = SURFACE_STYLE_FILL_AREA ( #46 ) ;
#53 = MECHANICAL_DESIGN_GEOMETRIC_PRESENTATION_REPRESENTATION (  '', ( #48 ), #67 ) ;
#54 = PRESENTATION_LAYER_ASSIGNMENT (  '', '', ( #48 ) ) ;
#55 = ORIENTED_EDGE ( 'NONE', *, *, #60, .T. ) ;
#56 = ORIENTED_EDGE ( 'NONE', *, *, #65, .T. ) ;
#57 = VERTEX_POINT ( 'NONE', #196 ) ;
#58 = ORIENTED_EDGE ( 'NONE', *, *, #1, .T. ) ;
#59 = CIRCLE ( 'NONE', #45, 0.4999999999999999400 ) ;
#60 = EDGE_CURVE ( 'NONE', #7, #2, #195, .T. ) ;
#61 = FILL_AREA_STYLE_COLOUR ( '', #62 ) ;
#62 = COLOUR_RGB ( '',1.000000000000000000, 1.000000000000000000, 1.000000000000000000 ) ;
#63 = FACE_OUTER_BOUND ( 'NONE', #38, .T. ) ;
#64 = DIRECTION ( 'NONE',  ( 0.0000000000000000000, 1.000000000000000000, 3.073328992872296900E-016 ) ) ;
#65 = EDGE_CURVE ( 'NONE', #57, #10, #189, .T. ) ;
#66 = ADVANCED_FACE ( 'NONE', ( #184 ), #237, .T. ) ;
#67 =( GEOMETRIC_REPRESENTATION_CONTEXT ( 3 ) GLOBAL_UNCERTAINTY_ASSIGNED_CONTEXT ( ( #76 ) ) GLOBAL_UNIT_ASSIGNED_CONTEXT ( ( #39, #70, #68 ) ) REPRESENTATION_CONTEXT ( 'NONE', 'WORKASPACE' ) );
#68 =( NAMED_UNIT ( * ) SI_UNIT ( $, .STERADIAN. ) SOLID_ANGLE_UNIT ( ) );
#69 = CARTESIAN_POINT ( 'NONE',  ( 0.0000000000000000000, 6.759441370310917000E-017, -0.1480314960629921200 ) ) ;
#70 =( NAMED_UNIT ( * ) PLANE_ANGLE_UNIT ( ) SI_UNIT ( $, .RADIAN. ) );
#71 = AXIS2_PLACEMENT_3D ( 'NONE', #69, #74, #73 ) ;
#72 =( LENGTH_UNIT ( ) NAMED_UNIT ( * ) SI_UNIT ( $, .METRE. ) );
#73 = DIRECTION ( 'NONE',  ( 0.0000000000000000000, 1.000000000000000000, 3.073328992872308200E-016 ) ) ;
#74 = DIRECTION ( 'NONE',  ( -0.0000000000000000000, 3.061515884555943600E-016, -1.000000000000000000 ) ) ;
#75 = DIMENSIONAL_EXPONENTS ( 1.000000000000000000, 0.0000000000000000000, 0.0000000000000000000, 0.0000000000000000000, 0.0000000000000000000, 0.0000000000000000000, 0.0000000000000000000 ) ;
#76 = UNCERTAINTY_MEASURE_WITH_UNIT (LENGTH_MEASURE( 1.000000000000000100E-005 ), #39, 'distance_accuracy_value', 'NONE');
#77 = CYLINDRICAL_SURFACE ( 'NONE', #71, 0.4999999999999980600 ) ;
#78 = LENGTH_MEASURE_WITH_UNIT ( LENGTH_MEASURE( 0.02539999999999999900 ), #72 );
#79 = DIRECTION ( 'NONE',  ( 0.0000000000000000000, 1.000000000000000000, 3.073328992872319500E-016 ) ) ;
#80 = DIRECTION ( 'NONE',  ( -0.0000000000000000000, 3.061515884555943600E-016, -1.000000000000000000 ) ) ;
#81 = CARTESIAN_POINT ( 'NONE',  ( 6.123031769111862900E-017, -0.4999999999999980000, -0.1480314960629922900 ) ) ;
#82 = CARTESIAN_POINT ( 'NONE',  ( 6.123031769111885100E-017, -0.4999999999999999400, -0.1480314960629924300 ) ) ;
#83 = LINE ( 'NONE', #81, #84 ) ;
#84 = VECTOR ( 'NONE', #80, 39.37007874015748100 ) ;
#85 = SURFACE_SIDE_STYLE ('',( #86 ) ) ;
#86 = SURFACE_STYLE_FILL_AREA ( #87 ) ;
#87 = FILL_AREA_STYLE ('',( #88 ) ) ;
#88 = FILL_AREA_STYLE_COLOUR ( '', #94 ) ;
#89 = MECHANICAL_DESIGN_GEOMETRIC_PRESENTATION_REPRESENTATION (  '', ( #91 ), #99 ) ;
#90 = PRESENTATION_LAYER_ASSIGNMENT (  '', '', ( #91 ) ) ;
#91 = STYLED_ITEM ( 'NONE', ( #92 ), #9 ) ;
#92 = PRESENTATION_STYLE_ASSIGNMENT (( #93 ) ) ;
#93 = SURFACE_STYLE_USAGE ( .BOTH. , #85 ) ;
#94 = COLOUR_RGB ( '',0.7960784313725489700, 0.8235294117647058400, 0.9372549019607843100 ) ;
#95 = UNCERTAINTY_MEASURE_WITH_UNIT (LENGTH_MEASURE( 1.000000000000000100E-005 ), #97, 'distance_accuracy_value', 'NONE');
#96 =( NAMED_UNIT ( * ) SI_UNIT ( $, .STERADIAN. ) SOLID_ANGLE_UNIT ( ) );
#97 =( CONVERSION_BASED_UNIT ( 'INCH', #78 ) LENGTH_UNIT ( ) NAMED_UNIT ( #75 ) );
#98 =( NAMED_UNIT ( * ) PLANE_ANGLE_UNIT ( ) SI_UNIT ( $, .RADIAN. ) );
#99 =( GEOMETRIC_REPRESENTATION_CONTEXT ( 3 ) GLOBAL_UNCERTAINTY_ASSIGNED_CONTEXT ( ( #95 ) ) GLOBAL_UNIT_ASSIGNED_CONTEXT ( ( #97, #98, #96 ) ) REPRESENTATION_CONTEXT ( 'NONE', 'WORKASPACE' ) );
#100 = DIRECTION ( 'NONE',  ( -0.0000000000000000000, 3.061515884555943600E-016, -1.000000000000000000 ) ) ;
#101 = CARTESIAN_POINT ( 'NONE',  ( 0.0000000000000000000, 4.359827361576199100E-017, -0.06965156601462103900 ) ) ;
#102 = AXIS2_PLACEMENT_3D ( 'NONE', #101, #100, #79 ) ;
#103 = CIRCLE ( 'NONE', #102, 0.4999999999999962300 ) ;
#104 = DIMENSIONAL_EXPONENTS ( 1.000000000000000000, 0.0000000000000000000, 0.0000000000000000000, 0.0000000000000000000, 0.0000000000000000000, 0.0000000000000000000, 0.0000000000000000000 ) ;
#105 = CARTESIAN_POINT ( 'NONE',  ( 6.123031769111840700E-017, -0.4999999999999962800, -0.06965156601462115000 ) ) ;
#106 =( LENGTH_UNIT ( ) NAMED_UNIT ( * ) SI_UNIT ( $, .METRE. ) );
#107 = MECHANICAL_DESIGN_GEOMETRIC_PRESENTATION_REPRESENTATION (  '', ( #109 ), #143 ) ;
#108 = PRESENTATION_LAYER_ASSIGNMENT (  '', '', ( #109 ) ) ;
#109 = STYLED_ITEM ( 'NONE', ( #110 ), #17 ) ;
#110 = PRESENTATION_STYLE_ASSIGNMENT (( #111 ) ) ;
#111 = SURFACE_STYLE_USAGE ( .BOTH. , #112 ) ;
#112 = SURFACE_SIDE_STYLE ('',( #113 ) ) ;
#113 = SURFACE_STYLE_FILL_AREA ( #114 ) ;
#114 = FILL_AREA_STYLE ('',( #115 ) ) ;
#115 = FILL_AREA_STYLE_COLOUR ( '', #116 ) ;
#116 = COLOUR_RGB ( '',1.000000000000000000, 1.000000000000000000, 1.000000000000000000 ) ;
#117 = FACE_OUTER_BOUND ( 'NONE', #12, .T. ) ;
#118 = DIRECTION ( 'NONE',  ( -0.0000000000000000000, 3.061515884555943600E-016, -1.000000000000000000 ) ) ;
#119 = AXIS2_PLACEMENT_3D ( 'NONE', #120, #118, #132 ) ;
#120 = CARTESIAN_POINT ( 'NONE',  ( 0.0000000000000000000, 6.759441370310917000E-017, -0.1480314960629921200 ) ) ;
#121 = CYLINDRICAL_SURFACE ( 'NONE', #119, 0.4999999999999980600 ) ;
#122 = AXIS2_PLACEMENT_3D ( 'NONE', #236, #202, #201 ) ;
#123 = APPLICATION_CONTEXT ( 'automotive_design' ) ;
#124 = PRESENTATION_LAYER_ASSIGNMENT (  '', '', ( #125 ) ) ;
#125 = STYLED_ITEM ( 'NONE', ( #126 ), #28 ) ;
#126 = PRESENTATION_STYLE_ASSIGNMENT (( #127 ) ) ;
#127 = SURFACE_STYLE_USAGE ( .BOTH. , #128 ) ;
#128 = SURFACE_SIDE_STYLE ('',( #129 ) ) ;
#129 = SURFACE_STYLE_FILL_AREA ( #130 ) ;
#130 = FILL_AREA_STYLE ('',( #134 ) ) ;
#131 = COLOUR_RGB ( '',1.000000000000000000, 1.000000000000000000, 1.000000000000000000 ) ;
#132 = DIRECTION ( 'NONE',  ( 0.0000000000000000000, 1.000000000000000000, 3.073328992872308200E-016 ) ) ;
#133 = FACE_OUTER_BOUND ( 'NONE', #29, .T. ) ;
#134 = FILL_AREA_STYLE_COLOUR ( '', #131 ) ;
#135 = LENGTH_MEASURE_WITH_UNIT ( LENGTH_MEASURE( 0.02539999999999999900 ), #106 );
#136 = PRODUCT_DEFINITION_CONTEXT ( 'detailed design', #138, 'design' ) ;
#137 = APPLICATION_PROTOCOL_DEFINITION ( 'draft international standard', 'automotive_design', 1998, #138 ) ;
#138 = APPLICATION_CONTEXT ( 'automotive_design' ) ;
#139 = PRODUCT ( '3328-E0W', '3328-E0W', '', ( #140 ) ) ;
#140 = PRODUCT_CONTEXT ( 'NONE', #123, 'mechanical' ) ;
#141 = APPLICATION_PROTOCOL_DEFINITION ( 'draft international standard', 'automotive_design', 1998, #123 ) ;
#142 =( CONVERSION_BASED_UNIT ( 'INCH', #135 ) LENGTH_UNIT ( ) NAMED_UNIT ( #104 ) );
#143 =( GEOMETRIC_REPRESENTATION_CONTEXT ( 3 ) GLOBAL_UNCERTAINTY_ASSIGNED_CONTEXT ( ( #265 ) ) GLOBAL_UNIT_ASSIGNED_CONTEXT ( ( #142, #242, #144 ) ) REPRESENTATION_CONTEXT ( 'NONE', 'WORKASPACE' ) );
#144 =( NAMED_UNIT ( * ) SI_UNIT ( $, .STERADIAN. ) SOLID_ANGLE_UNIT ( ) );
#145 = SHAPE_DEFINITION_REPRESENTATION ( #26, #146 ) ;
#146 = ADVANCED_BREP_SHAPE_REPRESENTATION ( '3328-E0W', ( #9, #122 ), #147 ) ;
#147 =( GEOMETRIC_REPRESENTATION_CONTEXT ( 3 ) GLOBAL_UNCERTAINTY_ASSIGNED_CONTEXT ( ( #225 ) ) GLOBAL_UNIT_ASSIGNED_CONTEXT ( ( #228, #227, #226 ) ) REPRESENTATION_CONTEXT ( 'NONE', 'WORKASPACE' ) );
#148 = DIRECTION ( 'NONE',  ( 0.0000000000000000000, 0.0000000000000000000, 1.000000000000000000 ) ) ;
#149 = DIRECTION ( 'NONE',  ( -1.000000000000000000, 0.0000000000000000000, 0.0000000000000000000 ) ) ;
#150 = CARTESIAN_POINT ( 'NONE',  ( 0.0000000000000000000, 6.060355065963492900E-017, -0.5350393700787310400 ) ) ;
#151 = AXIS2_PLACEMENT_3D ( 'NONE', #150, #149, #148 ) ;
#152 = DIRECTION ( 'NONE',  ( 0.0000000000000000000, 1.000000000000000000, 2.999521860478646700E-016 ) ) ;
#153 = DIRECTION ( 'NONE',  ( 1.000000000000000000, 0.0000000000000000000, -0.0000000000000000000 ) ) ;
#154 = CARTESIAN_POINT ( 'NONE',  ( 0.0000000000000000000, 6.060355065963492900E-017, -0.5350393700787310400 ) ) ;
#155 = AXIS2_PLACEMENT_3D ( 'NONE', #154, #153, #152 ) ;
#156 = CIRCLE ( 'NONE', #151, 0.6830708661417281800 ) ;
#157 = SPHERICAL_SURFACE ( 'NONE', #155, 0.6830708661417281800 ) ;
#158 =( GEOMETRIC_REPRESENTATION_CONTEXT ( 3 ) GLOBAL_UNCERTAINTY_ASSIGNED_CONTEXT ( ( #159 ) ) GLOBAL_UNIT_ASSIGNED_CONTEXT ( ( #162, #161, #160 ) ) REPRESENTATION_CONTEXT ( 'NONE', 'WORKASPACE' ) );
#159 = UNCERTAINTY_MEASURE_WITH_UNIT (LENGTH_MEASURE( 1.000000000000000100E-005 ), #162, 'distance_accuracy_value', 'NONE');
#160 =( NAMED_UNIT ( * ) SI_UNIT ( $, .STERADIAN. ) SOLID_ANGLE_UNIT ( ) );
#161 =( NAMED_UNIT ( * ) PLANE_ANGLE_UNIT ( ) SI_UNIT ( $, .RADIAN. ) );
#162 =( CONVERSION_BASED_UNIT ( 'INCH', #163 ) LENGTH_UNIT ( ) NAMED_UNIT ( #164 ) );
#163 = LENGTH_MEASURE_WITH_UNIT ( LENGTH_MEASURE( 0.02539999999999999900 ), #165 );
#164 = DIMENSIONAL_EXPONENTS ( 1.000000000000000000, 0.0000000000000000000, 0.0000000000000000000, 0.0000000000000000000, 0.0000000000000000000, 0.0000000000000000000, 0.0000000000000000000 ) ;
#165 =( LENGTH_UNIT ( ) NAMED_UNIT ( * ) SI_UNIT ( $, .METRE. ) );
#166 = MECHANICAL_DESIGN_GEOMETRIC_PRESENTATION_REPRESENTATION (  '', ( #168 ), #158 ) ;
#167 = PRESENTATION_LAYER_ASSIGNMENT (  '', '', ( #168 ) ) ;
#168 = STYLED_ITEM ( 'NONE', ( #169 ), #33 ) ;
#169 = PRESENTATION_STYLE_ASSIGNMENT (( #170 ) ) ;
#170 = SURFACE_STYLE_USAGE ( .BOTH. , #243 ) ;
#171 =( CONVERSION_BASED_UNIT ( 'INCH', #172 ) LENGTH_UNIT ( ) NAMED_UNIT ( #173 ) );
#172 = LENGTH_MEASURE_WITH_UNIT ( LENGTH_MEASURE( 0.02539999999999999900 ), #174 );
#173 = DIMENSIONAL_EXPONENTS ( 1.000000000000000000, 0.0000000000000000000, 0.0000000000000000000, 0.0000000000000000000, 0.0000000000000000000, 0.0000000000000000000, 0.0000000000000000000 ) ;
#174 =( LENGTH_UNIT ( ) NAMED_UNIT ( * ) SI_UNIT ( $, .METRE. ) );
#175 = MECHANICAL_DESIGN_GEOMETRIC_PRESENTATION_REPRESENTATION (  '', ( #177 ), #238 ) ;
#176 = PRESENTATION_LAYER_ASSIGNMENT (  '', '', ( #177 ) ) ;
#177 = STYLED_ITEM ( 'NONE', ( #178 ), #66 ) ;
#178 = PRESENTATION_STYLE_ASSIGNMENT (( #179 ) ) ;
#179 = SURFACE_STYLE_USAGE ( .BOTH. , #180 ) ;
#180 = SURFACE_SIDE_STYLE ('',( #181 ) ) ;
#181 = SURFACE_STYLE_FILL_AREA ( #182 ) ;
#182 = FILL_AREA_STYLE ('',( #190 ) ) ;
#183 = COLOUR_RGB ( '',1.000000000000000000, 1.000000000000000000, 1.000000000000000000 ) ;
#184 = FACE_OUTER_BOUND ( 'NONE', #25, .T. ) ;
#185 = DIRECTION ( 'NONE',  ( 0.0000000000000000000, 1.000000000000000000, 3.073328992872319500E-016 ) ) ;
#186 = DIRECTION ( 'NONE',  ( -0.0000000000000000000, 3.061515884555943600E-016, -1.000000000000000000 ) ) ;
#187 = CARTESIAN_POINT ( 'NONE',  ( 0.0000000000000000000, 4.359827361576199100E-017, -0.06965156601462103900 ) ) ;
#188 = AXIS2_PLACEMENT_3D ( 'NONE', #187, #186, #185 ) ;
#189 = CIRCLE ( 'NONE', #188, 0.4999999999999962300 ) ;
#190 = FILL_AREA_STYLE_COLOUR ( '', #183 ) ;
#191 = DIRECTION ( 'NONE',  ( 0.0000000000000000000, 1.000000000000000000, 3.073328992872296900E-016 ) ) ;
#192 = DIRECTION ( 'NONE',  ( -0.0000000000000000000, 3.061515884555943600E-016, -1.000000000000000000 ) ) ;
#193 = CARTESIAN_POINT ( 'NONE',  ( 0.0000000000000000000, 6.759441370310921900E-017, -0.1480314960629922900 ) ) ;
#194 = AXIS2_PLACEMENT_3D ( 'NONE', #193, #192, #191 ) ;
#195 = CIRCLE ( 'NONE', #194, 0.4999999999999999400 ) ;
#196 = CARTESIAN_POINT ( 'NONE',  ( 0.0000000000000000000, 0.4999999999999962800, -0.06965156601462085800 ) ) ;
#197 = CARTESIAN_POINT ( 'NONE',  ( 0.0000000000000000000, -1.066950338979881100E-016, 0.1480314960629971800 ) ) ;
#198 =( NAMED_UNIT ( * ) SI_UNIT ( $, .STERADIAN. ) SOLID_ANGLE_UNIT ( ) );
#199 =( NAMED_UNIT ( * ) PLANE_ANGLE_UNIT ( ) SI_UNIT ( $, .RADIAN. ) );
#200 =( CONVERSION_BASED_UNIT ( 'INCH', #221 ) LENGTH_UNIT ( ) NAMED_UNIT ( #222 ) );
#201 = DIRECTION ( 'NONE',  ( 1.000000000000000000, 0.0000000000000000000, 0.0000000000000000000 ) ) ;
#202 = DIRECTION ( 'NONE',  ( 0.0000000000000000000, 0.0000000000000000000, 1.000000000000000000 ) ) ;
#203 =( GEOMETRIC_REPRESENTATION_CONTEXT ( 3 ) GLOBAL_UNCERTAINTY_ASSIGNED_CONTEXT ( ( #204 ) ) GLOBAL_UNIT_ASSIGNED_CONTEXT ( ( #207, #206, #205 ) ) REPRESENTATION_CONTEXT ( 'NONE', 'WORKASPACE' ) );
#204 = UNCERTAINTY_MEASURE_WITH_UNIT (LENGTH_MEASURE( 1.000000000000000100E-005 ), #207, 'distance_accuracy_value', 'NONE');
#205 =( NAMED_UNIT ( * ) SI_UNIT ( $, .STERADIAN. ) SOLID_ANGLE_UNIT ( ) );
#206 =( NAMED_UNIT ( * ) PLANE_ANGLE_UNIT ( ) SI_UNIT ( $, .RADIAN. ) );
#207 =( CONVERSION_BASED_UNIT ( 'INCH', #208 ) LENGTH_UNIT ( ) NAMED_UNIT ( #209 ) );
#208 = LENGTH_MEASURE_WITH_UNIT ( LENGTH_MEASURE( 0.02539999999999999900 ), #210 );
#209 = DIMENSIONAL_EXPONENTS ( 1.000000000000000000, 0.0000000000000000000, 0.0000000000000000000, 0.0000000000000000000, 0.0000000000000000000, 0.0000000000000000000, 0.0000000000000000000 ) ;
#210 =( LENGTH_UNIT ( ) NAMED_UNIT ( * ) SI_UNIT ( $, .METRE. ) );
#211 = MECHANICAL_DESIGN_GEOMETRIC_PRESENTATION_REPRESENTATION (  '', ( #213 ), #203 ) ;
#212 = PRESENTATION_LAYER_ASSIGNMENT (  '', '', ( #213 ) ) ;
#213 = STYLED_ITEM ( 'NONE', ( #214 ), #146 ) ;
#214 = PRESENTATION_STYLE_ASSIGNMENT (( #215 ) ) ;
#215 = SURFACE_STYLE_USAGE ( .BOTH. , #216 ) ;
#216 = SURFACE_SIDE_STYLE ('',( #217 ) ) ;
#217 = SURFACE_STYLE_FILL_AREA ( #218 ) ;
#218 = FILL_AREA_STYLE ('',( #219 ) ) ;
#219 = FILL_AREA_STYLE_COLOUR ( '', #220 ) ;
#220 = COLOUR_RGB ( '',0.7960784313725489700, 0.8235294117647058400, 0.9372549019607843100 ) ;
#221 = LENGTH_MEASURE_WITH_UNIT ( LENGTH_MEASURE( 0.02539999999999999900 ), #223 );
#222 = DIMENSIONAL_EXPONENTS ( 1.000000000000000000, 0.0000000000000000000, 0.0000000000000000000, 0.0000000000000000000, 0.0000000000000000000, 0.0000000000000000000, 0.0000000000000000000 ) ;
#223 =( LENGTH_UNIT ( ) NAMED_UNIT ( * ) SI_UNIT ( $, .METRE. ) );
#224 = MECHANICAL_DESIGN_GEOMETRIC_PRESENTATION_REPRESENTATION (  '', ( #125 ), #263 ) ;
#225 = UNCERTAINTY_MEASURE_WITH_UNIT (LENGTH_MEASURE( 1.000000000000000100E-005 ), #228, 'distance_accuracy_value', 'NONE');
#226 =( NAMED_UNIT ( * ) SI_UNIT ( $, .STERADIAN. ) SOLID_ANGLE_UNIT ( ) );
#227 =( NAMED_UNIT ( * ) PLANE_ANGLE_UNIT ( ) SI_UNIT ( $, .RADIAN. ) );
#228 =( CONVERSION_BASED_UNIT ( 'INCH', #229 ) LENGTH_UNIT ( ) NAMED_UNIT ( #230 ) );
#229 = LENGTH_MEASURE_WITH_UNIT ( LENGTH_MEASURE( 0.02539999999999999900 ), #231 );
#230 = DIMENSIONAL_EXPONENTS ( 1.000000000000000000, 0.0000000000000000000, 0.0000000000000000000, 0.0000000000000000000, 0.0000000000000000000, 0.0000000000000000000, 0.0000000000000000000 ) ;
#231 =( LENGTH_UNIT ( ) NAMED_UNIT ( * ) SI_UNIT ( $, .METRE. ) );
#232 = DIRECTION ( 'NONE',  ( 0.0000000000000000000, 1.000000000000000000, 2.999521860478646700E-016 ) ) ;
#233 = DIRECTION ( 'NONE',  ( 1.000000000000000000, 0.0000000000000000000, -0.0000000000000000000 ) ) ;
#234 = CARTESIAN_POINT ( 'NONE',  ( 0.0000000000000000000, 6.060355065963492900E-017, -0.5350393700787310400 ) ) ;
#235 = AXIS2_PLACEMENT_3D ( 'NONE', #234, #233, #232 ) ;
#236 = CARTESIAN_POINT ( 'NONE',  ( 0.0000000000000000000, 0.0000000000000000000, 0.0000000000000000000 ) ) ;
#237 = SPHERICAL_SURFACE ( 'NONE', #235, 0.6830708661417281800 ) ;
#238 =( GEOMETRIC_REPRESENTATION_CONTEXT ( 3 ) GLOBAL_UNCERTAINTY_ASSIGNED_CONTEXT ( ( #239 ) ) GLOBAL_UNIT_ASSIGNED_CONTEXT ( ( #171, #241, #240 ) ) REPRESENTATION_CONTEXT ( 'NONE', 'WORKASPACE' ) );
#239 = UNCERTAINTY_MEASURE_WITH_UNIT (LENGTH_MEASURE( 1.000000000000000100E-005 ), #171, 'distance_accuracy_value', 'NONE');
#240 =( NAMED_UNIT ( * ) SI_UNIT ( $, .STERADIAN. ) SOLID_ANGLE_UNIT ( ) );
#241 =( NAMED_UNIT ( * ) PLANE_ANGLE_UNIT ( ) SI_UNIT ( $, .RADIAN. ) );
#242 =( NAMED_UNIT ( * ) PLANE_ANGLE_UNIT ( ) SI_UNIT ( $, .RADIAN. ) );
#243 = SURFACE_SIDE_STYLE ('',( #244 ) ) ;
#244 = SURFACE_STYLE_FILL_AREA ( #245 ) ;
#245 = FILL_AREA_STYLE ('',( #252 ) ) ;
#246 = COLOUR_RGB ( '',1.000000000000000000, 1.000000000000000000, 1.000000000000000000 ) ;
#247 = FACE_OUTER_BOUND ( 'NONE', #20, .T. ) ;
#248 = DIRECTION ( 'NONE',  ( -0.0000000000000000000, 3.061515884555943600E-016, -1.000000000000000000 ) ) ;
#249 = VECTOR ( 'NONE', #248, 39.37007874015748100 ) ;
#250 = CARTESIAN_POINT ( 'NONE',  ( 0.0000000000000000000, 0.4999999999999981700, -0.1480314960629919900 ) ) ;
#251 = LINE ( 'NONE', #250, #249 ) ;
#252 = FILL_AREA_STYLE_COLOUR ( '', #246 ) ;
#253 = DIRECTION ( 'NONE',  ( -1.224606353822377300E-016, 1.000000000000000000, 0.0000000000000000000 ) ) ;
#254 = DIRECTION ( 'NONE',  ( 1.000000000000000000, 1.224606353822377300E-016, 3.749151804555344100E-032 ) ) ;
#255 = CARTESIAN_POINT ( 'NONE',  ( 0.0000000000000000000, 6.060355065963492900E-017, -0.5350393700787310400 ) ) ;
#256 = AXIS2_PLACEMENT_3D ( 'NONE', #255, #254, #253 ) ;
#257 = DIRECTION ( 'NONE',  ( 0.0000000000000000000, 1.000000000000000000, 3.061515884555943600E-016 ) ) ;
#258 = DIRECTION ( 'NONE',  ( -0.0000000000000000000, 3.061515884555943600E-016, -1.000000000000000000 ) ) ;
#259 = CARTESIAN_POINT ( 'NONE',  ( 0.0000000000000000000, 6.759441370310919500E-017, -0.1480314960629922100 ) ) ;
#260 = AXIS2_PLACEMENT_3D ( 'NONE', #259, #258, #257 ) ;
#261 = CIRCLE ( 'NONE', #256, 0.6830708661417281800 ) ;
#262 = PLANE ( 'NONE',  #260 ) ;
#263 =( GEOMETRIC_REPRESENTATION_CONTEXT ( 3 ) GLOBAL_UNCERTAINTY_ASSIGNED_CONTEXT ( ( #264 ) ) GLOBAL_UNIT_ASSIGNED_CONTEXT ( ( #200, #199, #198 ) ) REPRESENTATION_CONTEXT ( 'NONE', 'WORKASPACE' ) );
#264 = UNCERTAINTY_MEASURE_WITH_UNIT (LENGTH_MEASURE( 1.000000000000000100E-005 ), #200, 'distance_accuracy_value', 'NONE');
#265 = UNCERTAINTY_MEASURE_WITH_UNIT (LENGTH_MEASURE( 1.000000000000000100E-005 ), #142, 'distance_accuracy_value', 'NONE');
ENDSEC;
END-ISO-10303-21;
