ISO-10303-21;
HEADER;
FILE_DESCRIPTION (( 'STEP AP203' ),
    '1' );
FILE_NAME ('Web Model Lightsmyth Gratings_16865.step',
    '2021-03-11T20:24:51',
    ( '' ),
    ( '' ),
    'SwSTEP 2.0',
    'SolidWorks 2018',
    '' );
FILE_SCHEMA (( 'CONFIG_CONTROL_DESIGN' ));
ENDSEC;

DATA;
#1 = VERTEX_POINT ( 'NONE', #161 ) ;
#2 = PLANE ( 'NONE',  #64 ) ;
#3 = CARTESIAN_POINT ( 'NONE',  ( -60.00000000000002132, 9.999999999999998224, 0.9499999999999999556 ) ) ;
#4 = EDGE_LOOP ( 'NONE', ( #37, #94, #135, #118 ) ) ;
#5 = CALENDAR_DATE ( 2021, 11, 3 ) ;
#6 = CC_DESIGN_PERSON_AND_ORGANIZATION_ASSIGNMENT ( #28, #219, ( #180 ) ) ;
#7 = APPROVAL_ROLE ( '' ) ;
#8 = VECTOR ( 'NONE', #178, 1000.000000000000000 ) ;
#9 = ORIENTED_EDGE ( 'NONE', *, *, #43, .F. ) ;
#10 = EDGE_CURVE ( 'NONE', #203, #158, #103, .T. ) ;
#11 = DESIGN_CONTEXT ( 'detailed design', #145, 'design' ) ;
#12 = AXIS2_PLACEMENT_3D ( 'NONE', #83, #177, #60 ) ;
#13 =( GEOMETRIC_REPRESENTATION_CONTEXT ( 3 ) GLOBAL_UNCERTAINTY_ASSIGNED_CONTEXT ( ( #153 ) ) GLOBAL_UNIT_ASSIGNED_CONTEXT ( ( #215, #137, #134 ) ) REPRESENTATION_CONTEXT ( 'NONE', 'WORKASPACE' ) );
#14 = DIRECTION ( 'NONE',  ( 1.000000000000000000, 0.0000000000000000000, 0.0000000000000000000 ) ) ;
#15 = AXIS2_PLACEMENT_3D ( 'NONE', #84, #107, #68 ) ;
#16 = EDGE_LOOP ( 'NONE', ( #159, #109, #198, #46 ) ) ;
#17 = CC_DESIGN_APPROVAL ( #130, ( #62 ) ) ;
#18 = VECTOR ( 'NONE', #65, 1000.000000000000000 ) ;
#19 = EDGE_CURVE ( 'NONE', #228, #42, #234, .T. ) ;
#20 = DIRECTION ( 'NONE',  ( 0.0000000000000000000, -1.000000000000000000, 0.0000000000000000000 ) ) ;
#21 = APPROVAL_ROLE ( '' ) ;
#22 = CC_DESIGN_APPROVAL ( #26, ( #139 ) ) ;
#23 = VECTOR ( 'NONE', #184, 1000.000000000000000 ) ;
#24 = AXIS2_PLACEMENT_3D ( 'NONE', #100, #63, #102 ) ;
#25 = LINE ( 'NONE', #66, #185 ) ;
#26 = APPROVAL ( #53, 'UNSPECIFIED' ) ;
#27 = PLANE ( 'NONE',  #24 ) ;
#28 = PERSON_AND_ORGANIZATION ( #47, #146 ) ;
#29 = CARTESIAN_POINT ( 'NONE',  ( -60.00000000000002132, 9.999999999999998224, 0.0000000000000000000 ) ) ;
#30 = DIRECTION ( 'NONE',  ( -1.000000000000000000, -0.0000000000000000000, -0.0000000000000000000 ) ) ;
#31 = CARTESIAN_POINT ( 'NONE',  ( -60.00000000000002132, 9.999999999999998224, 0.9499999999999999556 ) ) ;
#32 = EDGE_CURVE ( 'NONE', #1, #228, #61, .T. ) ;
#33 = ORIENTED_EDGE ( 'NONE', *, *, #182, .F. ) ;
#34 = COORDINATED_UNIVERSAL_TIME_OFFSET ( 5, 0, .BEHIND. ) ;
#35 = DIRECTION ( 'NONE',  ( -0.0000000000000000000, -0.0000000000000000000, -1.000000000000000000 ) ) ;
#36 = LINE ( 'NONE', #116, #98 ) ;
#37 = ORIENTED_EDGE ( 'NONE', *, *, #19, .T. ) ;
#38 = PERSON_AND_ORGANIZATION_ROLE ( 'design_supplier' ) ;
#39 = PERSON_AND_ORGANIZATION ( #47, #146 ) ;
#40 = PRODUCT_DEFINITION ( 'UNKNOWN', '', #62, #11 ) ;
#41 = CALENDAR_DATE ( 2021, 11, 3 ) ;
#42 = VERTEX_POINT ( 'NONE', #52 ) ;
#43 = EDGE_CURVE ( 'NONE', #59, #124, #156, .T. ) ;
#44 = APPLICATION_CONTEXT ( 'configuration controlled 3d designs of mechanical parts and assemblies' ) ;
#45 = EDGE_LOOP ( 'NONE', ( #71, #33, #157, #151 ) ) ;
#46 = ORIENTED_EDGE ( 'NONE', *, *, #173, .T. ) ;
#47 = PERSON ( 'UNSPECIFIED', 'UNSPECIFIED', 'UNSPECIFIED', ('UNSPECIFIED'), ('UNSPECIFIED'), ('UNSPECIFIED') ) ;
#48 = CARTESIAN_POINT ( 'NONE',  ( 59.99999999999999289, -10.00000000000000178, 0.9499999999999999556 ) ) ;
#49 = ORIENTED_EDGE ( 'NONE', *, *, #186, .F. ) ;
#50 = AXIS2_PLACEMENT_3D ( 'NONE', #233, #14, #101 ) ;
#51 = DIRECTION ( 'NONE',  ( 0.0000000000000000000, -0.0000000000000000000, -1.000000000000000000 ) ) ;
#52 = CARTESIAN_POINT ( 'NONE',  ( -60.00000000000002132, -10.00000000000000178, 0.0000000000000000000 ) ) ;
#53 = APPROVAL_STATUS ( 'not_yet_approved' ) ;
#54 = AXIS2_PLACEMENT_3D ( 'NONE', #57, #217, #99 ) ;
#55 = LINE ( 'NONE', #226, #174 ) ;
#56 = VECTOR ( 'NONE', #205, 1000.000000000000000 ) ;
#57 = CARTESIAN_POINT ( 'NONE',  ( 0.0000000000000000000, 0.0000000000000000000, 0.9499999999999999556 ) ) ;
#58 = CC_DESIGN_PERSON_AND_ORGANIZATION_ASSIGNMENT ( #110, #168, ( #139 ) ) ;
#59 = VERTEX_POINT ( 'NONE', #212 ) ;
#60 = DIRECTION ( 'NONE',  ( 1.000000000000000000, 0.0000000000000000000, 0.0000000000000000000 ) ) ;
#61 = LINE ( 'NONE', #29, #221 ) ;
#62 = PRODUCT_DEFINITION_FORMATION_WITH_SPECIFIED_SOURCE ( 'ANY', '', #180, .NOT_KNOWN. ) ;
#63 = DIRECTION ( 'NONE',  ( 0.0000000000000000000, 1.000000000000000000, 0.0000000000000000000 ) ) ;
#64 = AXIS2_PLACEMENT_3D ( 'NONE', #165, #69, #206 ) ;
#65 = DIRECTION ( 'NONE',  ( -0.0000000000000000000, -1.000000000000000000, -0.0000000000000000000 ) ) ;
#66 = CARTESIAN_POINT ( 'NONE',  ( -60.00000000000002132, -10.00000000000000178, 0.9499999999999999556 ) ) ;
#67 = CARTESIAN_POINT ( 'NONE',  ( -60.00000000000002132, -10.00000000000000178, 0.0000000000000000000 ) ) ;
#68 = DIRECTION ( 'NONE',  ( 0.0000000000000000000, 0.0000000000000000000, 1.000000000000000000 ) ) ;
#69 = DIRECTION ( 'NONE',  ( 0.0000000000000000000, 0.0000000000000000000, -1.000000000000000000 ) ) ;
#70 = EDGE_LOOP ( 'NONE', ( #89, #49, #119, #188 ) ) ;
#71 = ORIENTED_EDGE ( 'NONE', *, *, #115, .T. ) ;
#72 = DATE_AND_TIME ( #230, #132 ) ;
#73 = APPROVAL_STATUS ( 'not_yet_approved' ) ;
#74 = ADVANCED_FACE ( 'NONE', ( #209 ), #155, .F. ) ;
#75 = PERSON_AND_ORGANIZATION_ROLE ( 'creator' ) ;
#76 = CC_DESIGN_DATE_AND_TIME_ASSIGNMENT ( #72, #93, ( #40 ) ) ;
#77 = PRODUCT_DEFINITION_SHAPE ( 'NONE', 'NONE',  #40 ) ;
#78 = EDGE_LOOP ( 'NONE', ( #235, #131, #9, #97 ) ) ;
#79 = CC_DESIGN_PERSON_AND_ORGANIZATION_ASSIGNMENT ( #232, #38, ( #62 ) ) ;
#80 = LINE ( 'NONE', #189, #144 ) ;
#81 = APPLICATION_PROTOCOL_DEFINITION ( 'international standard', 'config_control_design', 1994, #44 ) ;
#82 = PLANE ( 'NONE',  #50 ) ;
#83 = CARTESIAN_POINT ( 'NONE',  ( 0.0000000000000000000, 0.0000000000000000000, 0.0000000000000000000 ) ) ;
#84 = CARTESIAN_POINT ( 'NONE',  ( 59.99999999999999289, -10.00000000000000178, 0.9499999999999999556 ) ) ;
#85 = DATE_AND_TIME ( #191, #91 ) ;
#86 = CARTESIAN_POINT ( 'NONE',  ( 59.99999999999999289, -10.00000000000000178, 0.0000000000000000000 ) ) ;
#87 = DIRECTION ( 'NONE',  ( 1.000000000000000000, 0.0000000000000000000, 0.0000000000000000000 ) ) ;
#88 = CARTESIAN_POINT ( 'NONE',  ( -60.00000000000002132, 9.999999999999998224, 0.9499999999999999556 ) ) ;
#89 = ORIENTED_EDGE ( 'NONE', *, *, #115, .F. ) ;
#90 = APPROVAL_ROLE ( '' ) ;
#91 = LOCAL_TIME ( 15, 24, 51.00000000000000000, #142 ) ;
#92 = PERSON_AND_ORGANIZATION_ROLE ( 'creator' ) ;
#93 = DATE_TIME_ROLE ( 'creation_date' ) ;
#94 = ORIENTED_EDGE ( 'NONE', *, *, #173, .F. ) ;
#95 = APPROVAL_PERSON_ORGANIZATION ( #123, #204, #21 ) ;
#96 = ADVANCED_FACE ( 'NONE', ( #190 ), #140, .F. ) ;
#97 = ORIENTED_EDGE ( 'NONE', *, *, #182, .T. ) ;
#98 = VECTOR ( 'NONE', #133, 1000.000000000000000 ) ;
#99 = DIRECTION ( 'NONE',  ( -1.000000000000000000, 0.0000000000000000000, -0.0000000000000000000 ) ) ;
#100 = CARTESIAN_POINT ( 'NONE',  ( -60.00000000000002132, -10.00000000000000178, 0.9499999999999999556 ) ) ;
#101 = DIRECTION ( 'NONE',  ( 0.0000000000000000000, 0.0000000000000000000, -1.000000000000000000 ) ) ;
#102 = DIRECTION ( 'NONE',  ( 0.0000000000000000000, -0.0000000000000000000, 1.000000000000000000 ) ) ;
#103 = LINE ( 'NONE', #48, #23 ) ;
#104 = CARTESIAN_POINT ( 'NONE',  ( 59.99999999999999289, -10.00000000000000178, 0.9499999999999999556 ) ) ;
#105 = LINE ( 'NONE', #222, #8 ) ;
#106 = LINE ( 'NONE', #104, #56 ) ;
#107 = DIRECTION ( 'NONE',  ( -1.000000000000000000, 0.0000000000000000000, 0.0000000000000000000 ) ) ;
#108 = FACE_OUTER_BOUND ( 'NONE', #70, .T. ) ;
#109 = ORIENTED_EDGE ( 'NONE', *, *, #10, .F. ) ;
#110 = PERSON_AND_ORGANIZATION ( #47, #146 ) ;
#111 = DIRECTION ( 'NONE',  ( -1.000000000000000000, -0.0000000000000000000, -0.0000000000000000000 ) ) ;
#112 = SECURITY_CLASSIFICATION_LEVEL ( 'unclassified' ) ;
#113 = APPROVAL_PERSON_ORGANIZATION ( #122, #26, #7 ) ;
#114 = APPROVAL_DATE_TIME ( #85, #130 ) ;
#115 = EDGE_CURVE ( 'NONE', #158, #1, #187, .T. ) ;
#116 = CARTESIAN_POINT ( 'NONE',  ( -60.00000000000002132, -10.00000000000000178, 0.9499999999999999556 ) ) ;
#117 = CC_DESIGN_APPROVAL ( #204, ( #40 ) ) ;
#118 = ORIENTED_EDGE ( 'NONE', *, *, #143, .T. ) ;
#119 = ORIENTED_EDGE ( 'NONE', *, *, #19, .F. ) ;
#120 = DATE_AND_TIME ( #41, #136 ) ;
#121 = ORIENTED_EDGE ( 'NONE', *, *, #160, .T. ) ;
#122 = PERSON_AND_ORGANIZATION ( #47, #146 ) ;
#123 = PERSON_AND_ORGANIZATION ( #47, #146 ) ;
#124 = VERTEX_POINT ( 'NONE', #31 ) ;
#125 = PERSON_AND_ORGANIZATION ( #47, #146 ) ;
#126 = APPROVAL_STATUS ( 'not_yet_approved' ) ;
#127 = EDGE_CURVE ( 'NONE', #203, #59, #106, .T. ) ;
#128 = DATE_TIME_ROLE ( 'classification_date' ) ;
#129 = PERSON_AND_ORGANIZATION ( #47, #146 ) ;
#130 = APPROVAL ( #126, 'UNSPECIFIED' ) ;
#131 = ORIENTED_EDGE ( 'NONE', *, *, #143, .F. ) ;
#132 = LOCAL_TIME ( 15, 24, 51.00000000000000000, #34 ) ;
#133 = DIRECTION ( 'NONE',  ( -0.0000000000000000000, -0.0000000000000000000, -1.000000000000000000 ) ) ;
#134 =( NAMED_UNIT ( * ) SI_UNIT ( $, .STERADIAN. ) SOLID_ANGLE_UNIT ( ) );
#135 = ORIENTED_EDGE ( 'NONE', *, *, #195, .F. ) ;
#136 = LOCAL_TIME ( 15, 24, 51.00000000000000000, #170 ) ;
#137 =( NAMED_UNIT ( * ) PLANE_ANGLE_UNIT ( ) SI_UNIT ( $, .RADIAN. ) );
#138 = DIRECTION ( 'NONE',  ( -0.0000000000000000000, -1.000000000000000000, -0.0000000000000000000 ) ) ;
#139 = SECURITY_CLASSIFICATION ( '', '', #112 ) ;
#140 = PLANE ( 'NONE',  #15 ) ;
#141 = COORDINATED_UNIVERSAL_TIME_OFFSET ( 5, 0, .BEHIND. ) ;
#142 = COORDINATED_UNIVERSAL_TIME_OFFSET ( 5, 0, .BEHIND. ) ;
#143 = EDGE_CURVE ( 'NONE', #124, #228, #80, .T. ) ;
#144 = VECTOR ( 'NONE', #35, 1000.000000000000000 ) ;
#145 = APPLICATION_CONTEXT ( 'configuration controlled 3d designs of mechanical parts and assemblies' ) ;
#146 = ORGANIZATION ( 'UNSPECIFIED', 'UNSPECIFIED', '' ) ;
#147 = CARTESIAN_POINT ( 'NONE',  ( 59.99999999999999289, -10.00000000000000178, 0.0000000000000000000 ) ) ;
#148 = PRODUCT_RELATED_PRODUCT_CATEGORY ( 'detail', '', ( #180 ) ) ;
#149 = DIRECTION ( 'NONE',  ( -0.0000000000000000000, -0.0000000000000000000, -1.000000000000000000 ) ) ;
#150 = ORIENTED_EDGE ( 'NONE', *, *, #127, .T. ) ;
#151 = ORIENTED_EDGE ( 'NONE', *, *, #10, .T. ) ;
#152 = ADVANCED_FACE ( 'NONE', ( #162 ), #207, .F. ) ;
#153 = UNCERTAINTY_MEASURE_WITH_UNIT (LENGTH_MEASURE( 1.000000000000000082E-05 ), #215, 'distance_accuracy_value', 'NONE');
#154 = VECTOR ( 'NONE', #87, 1000.000000000000000 ) ;
#155 = PLANE ( 'NONE',  #54 ) ;
#156 = LINE ( 'NONE', #3, #201 ) ;
#157 = ORIENTED_EDGE ( 'NONE', *, *, #127, .F. ) ;
#158 = VERTEX_POINT ( 'NONE', #147 ) ;
#159 = ORIENTED_EDGE ( 'NONE', *, *, #186, .T. ) ;
#160 = EDGE_CURVE ( 'NONE', #193, #203, #202, .T. ) ;
#161 = CARTESIAN_POINT ( 'NONE',  ( 59.99999999999999289, 9.999999999999998224, 0.0000000000000000000 ) ) ;
#162 = FACE_OUTER_BOUND ( 'NONE', #78, .T. ) ;
#163 = CC_DESIGN_DATE_AND_TIME_ASSIGNMENT ( #194, #128, ( #139 ) ) ;
#164 = CARTESIAN_POINT ( 'NONE',  ( -60.00000000000002132, -10.00000000000000178, 0.9499999999999999556 ) ) ;
#165 = CARTESIAN_POINT ( 'NONE',  ( 0.0000000000000000000, 0.0000000000000000000, 0.0000000000000000000 ) ) ;
#166 = MANIFOLD_SOLID_BREP ( 'Boss-Extrude1', #175 ) ;
#167 = CC_DESIGN_PERSON_AND_ORGANIZATION_ASSIGNMENT ( #39, #92, ( #62 ) ) ;
#168 = PERSON_AND_ORGANIZATION_ROLE ( 'classification_officer' ) ;
#169 = DATE_AND_TIME ( #216, #176 ) ;
#170 = COORDINATED_UNIVERSAL_TIME_OFFSET ( 5, 0, .BEHIND. ) ;
#171 = ADVANCED_FACE ( 'NONE', ( #108 ), #2, .T. ) ;
#172 = SHAPE_DEFINITION_REPRESENTATION ( #77, #229 ) ;
#173 = EDGE_CURVE ( 'NONE', #193, #42, #36, .T. ) ;
#174 = VECTOR ( 'NONE', #149, 1000.000000000000000 ) ;
#175 = CLOSED_SHELL ( 'NONE', ( #96, #152, #213, #192, #74, #171 ) ) ;
#176 = LOCAL_TIME ( 15, 24, 51.00000000000000000, #199 ) ;
#177 = DIRECTION ( 'NONE',  ( 0.0000000000000000000, 0.0000000000000000000, 1.000000000000000000 ) ) ;
#178 = DIRECTION ( 'NONE',  ( 1.000000000000000000, 0.0000000000000000000, 0.0000000000000000000 ) ) ;
#179 = CC_DESIGN_SECURITY_CLASSIFICATION ( #139, ( #62 ) ) ;
#180 = PRODUCT ( 'Web Model Lightsmyth Gratings_16865', 'Web Model Lightsmyth Gratings_16865', '', ( #183 ) ) ;
#181 = ORIENTED_EDGE ( 'NONE', *, *, #195, .T. ) ;
#182 = EDGE_CURVE ( 'NONE', #59, #1, #55, .T. ) ;
#183 = MECHANICAL_CONTEXT ( 'NONE', #44, 'mechanical' ) ;
#184 = DIRECTION ( 'NONE',  ( -0.0000000000000000000, -0.0000000000000000000, -1.000000000000000000 ) ) ;
#185 = VECTOR ( 'NONE', #138, 1000.000000000000000 ) ;
#186 = EDGE_CURVE ( 'NONE', #42, #158, #105, .T. ) ;
#187 = LINE ( 'NONE', #86, #211 ) ;
#188 = ORIENTED_EDGE ( 'NONE', *, *, #32, .F. ) ;
#189 = CARTESIAN_POINT ( 'NONE',  ( -60.00000000000002132, 9.999999999999998224, 0.9499999999999999556 ) ) ;
#190 = FACE_OUTER_BOUND ( 'NONE', #45, .T. ) ;
#191 = CALENDAR_DATE ( 2021, 11, 3 ) ;
#192 = ADVANCED_FACE ( 'NONE', ( #231 ), #27, .F. ) ;
#193 = VERTEX_POINT ( 'NONE', #197 ) ;
#194 = DATE_AND_TIME ( #5, #225 ) ;
#195 = EDGE_CURVE ( 'NONE', #124, #193, #25, .T. ) ;
#196 = EDGE_LOOP ( 'NONE', ( #150, #227, #181, #121 ) ) ;
#197 = CARTESIAN_POINT ( 'NONE',  ( -60.00000000000002132, -10.00000000000000178, 0.9499999999999999556 ) ) ;
#198 = ORIENTED_EDGE ( 'NONE', *, *, #160, .F. ) ;
#199 = COORDINATED_UNIVERSAL_TIME_OFFSET ( 5, 0, .BEHIND. ) ;
#200 = CARTESIAN_POINT ( 'NONE',  ( 59.99999999999999289, -10.00000000000000178, 0.9499999999999999556 ) ) ;
#201 = VECTOR ( 'NONE', #111, 1000.000000000000000 ) ;
#202 = LINE ( 'NONE', #164, #154 ) ;
#203 = VERTEX_POINT ( 'NONE', #200 ) ;
#204 = APPROVAL ( #73, 'UNSPECIFIED' ) ;
#205 = DIRECTION ( 'NONE',  ( 0.0000000000000000000, 1.000000000000000000, 0.0000000000000000000 ) ) ;
#206 = DIRECTION ( 'NONE',  ( -1.000000000000000000, 0.0000000000000000000, -0.0000000000000000000 ) ) ;
#207 = PLANE ( 'NONE',  #220 ) ;
#208 = APPLICATION_PROTOCOL_DEFINITION ( 'international standard', 'config_control_design', 1994, #145 ) ;
#209 = FACE_OUTER_BOUND ( 'NONE', #196, .T. ) ;
#210 = APPROVAL_DATE_TIME ( #169, #26 ) ;
#211 = VECTOR ( 'NONE', #224, 1000.000000000000000 ) ;
#212 = CARTESIAN_POINT ( 'NONE',  ( 59.99999999999999289, 9.999999999999998224, 0.9499999999999999556 ) ) ;
#213 = ADVANCED_FACE ( 'NONE', ( #214 ), #82, .F. ) ;
#214 = FACE_OUTER_BOUND ( 'NONE', #4, .T. ) ;
#215 =( LENGTH_UNIT ( ) NAMED_UNIT ( * ) SI_UNIT ( .MILLI., .METRE. ) );
#216 = CALENDAR_DATE ( 2021, 11, 3 ) ;
#217 = DIRECTION ( 'NONE',  ( 0.0000000000000000000, 0.0000000000000000000, -1.000000000000000000 ) ) ;
#218 = CC_DESIGN_PERSON_AND_ORGANIZATION_ASSIGNMENT ( #129, #75, ( #40 ) ) ;
#219 = PERSON_AND_ORGANIZATION_ROLE ( 'design_owner' ) ;
#220 = AXIS2_PLACEMENT_3D ( 'NONE', #88, #20, #51 ) ;
#221 = VECTOR ( 'NONE', #30, 1000.000000000000000 ) ;
#222 = CARTESIAN_POINT ( 'NONE',  ( -60.00000000000002132, -10.00000000000000178, 0.0000000000000000000 ) ) ;
#223 = APPROVAL_PERSON_ORGANIZATION ( #125, #130, #90 ) ;
#224 = DIRECTION ( 'NONE',  ( 0.0000000000000000000, 1.000000000000000000, 0.0000000000000000000 ) ) ;
#225 = LOCAL_TIME ( 15, 24, 51.00000000000000000, #141 ) ;
#226 = CARTESIAN_POINT ( 'NONE',  ( 59.99999999999999289, 9.999999999999998224, 0.9499999999999999556 ) ) ;
#227 = ORIENTED_EDGE ( 'NONE', *, *, #43, .T. ) ;
#228 = VERTEX_POINT ( 'NONE', #237 ) ;
#229 = ADVANCED_BREP_SHAPE_REPRESENTATION ( 'Web Model Lightsmyth Gratings_16865', ( #166, #12 ), #13 ) ;
#230 = CALENDAR_DATE ( 2021, 11, 3 ) ;
#231 = FACE_OUTER_BOUND ( 'NONE', #16, .T. ) ;
#232 = PERSON_AND_ORGANIZATION ( #47, #146 ) ;
#233 = CARTESIAN_POINT ( 'NONE',  ( -60.00000000000002132, -10.00000000000000178, 0.9499999999999999556 ) ) ;
#234 = LINE ( 'NONE', #67, #18 ) ;
#235 = ORIENTED_EDGE ( 'NONE', *, *, #32, .T. ) ;
#236 = APPROVAL_DATE_TIME ( #120, #204 ) ;
#237 = CARTESIAN_POINT ( 'NONE',  ( -60.00000000000002132, 9.999999999999998224, 0.0000000000000000000 ) ) ;
ENDSEC;
END-ISO-10303-21;
