ISO-10303-21;
HEADER;
FILE_DESCRIPTION (( 'STEP AP203' ),
    '1' );
FILE_NAME ('Web Model 47682_14814.step',
    '2020-10-07T17:23:24',
    ( '' ),
    ( '' ),
    'SwSTEP 2.0',
    'SolidWorks 2018',
    '' );
FILE_SCHEMA (( 'CONFIG_CONTROL_DESIGN' ));
ENDSEC;

DATA;
#1 = CYLINDRICAL_SURFACE ( 'NONE', #107, 6.250000000000000000 ) ;
#2 = DIRECTION ( 'NONE',  ( 0.0000000000000000000, 0.0000000000000000000, 1.000000000000000000 ) ) ;
#3 = CYLINDRICAL_SURFACE ( 'NONE', #144, 6.250000000000000000 ) ;
#4 = COORDINATED_UNIVERSAL_TIME_OFFSET ( 5, 0, .BEHIND. ) ;
#5 = PRODUCT_DEFINITION ( 'UNKNOWN', '', #116, #150 ) ;
#6 = FACE_OUTER_BOUND ( 'NONE', #141, .T. ) ;
#7 = PERSON_AND_ORGANIZATION ( #51, #74 ) ;
#8 = DIRECTION ( 'NONE',  ( 0.0000000000000000000, 0.0000000000000000000, 1.000000000000000000 ) ) ;
#9 = ORIENTED_EDGE ( 'NONE', *, *, #158, .F. ) ;
#10 = CARTESIAN_POINT ( 'NONE',  ( 0.0000000000000000000, 0.0000000000000000000, 1.000000000000000000 ) ) ;
#11 = DIRECTION ( 'NONE',  ( 0.0000000000000000000, 0.0000000000000000000, 1.000000000000000000 ) ) ;
#12 = LINE ( 'NONE', #77, #171 ) ;
#13 = LOCAL_TIME ( 13, 23, 24.00000000000000000, #149 ) ;
#14 = PLANE ( 'NONE',  #87 ) ;
#15 = PRODUCT_RELATED_PRODUCT_CATEGORY ( 'detail', '', ( #40 ) ) ;
#16 = COORDINATED_UNIVERSAL_TIME_OFFSET ( 5, 0, .BEHIND. ) ;
#17 = AXIS2_PLACEMENT_3D ( 'NONE', #168, #11, #25 ) ;
#18 = PERSON_AND_ORGANIZATION_ROLE ( 'creator' ) ;
#19 = APPLICATION_PROTOCOL_DEFINITION ( 'international standard', 'config_control_design', 1994, #41 ) ;
#20 = CARTESIAN_POINT ( 'NONE',  ( 0.0000000000000000000, 0.0000000000000000000, -1.000000000000000000 ) ) ;
#21 = LOCAL_TIME ( 13, 23, 24.00000000000000000, #124 ) ;
#22 = AXIS2_PLACEMENT_3D ( 'NONE', #93, #121, #136 ) ;
#23 = EDGE_LOOP ( 'NONE', ( #111, #145 ) ) ;
#24 =( NAMED_UNIT ( * ) SI_UNIT ( $, .STERADIAN. ) SOLID_ANGLE_UNIT ( ) );
#25 = DIRECTION ( 'NONE',  ( 1.000000000000000000, 0.0000000000000000000, -0.0000000000000000000 ) ) ;
#26 = CARTESIAN_POINT ( 'NONE',  ( 6.250000000000000000, 7.654042494670957606E-16, -1.000000000000000000 ) ) ;
#27 = CC_DESIGN_APPROVAL ( #163, ( #88 ) ) ;
#28 = DATE_TIME_ROLE ( 'creation_date' ) ;
#29 = ORIENTED_EDGE ( 'NONE', *, *, #103, .T. ) ;
#30 = APPROVAL ( #65, 'UNSPECIFIED' ) ;
#31 = FACE_OUTER_BOUND ( 'NONE', #23, .T. ) ;
#32 = CIRCLE ( 'NONE', #133, 6.250000000000000000 ) ;
#33 = ADVANCED_FACE ( 'NONE', ( #6 ), #3, .T. ) ;
#34 = DIRECTION ( 'NONE',  ( 0.0000000000000000000, 0.0000000000000000000, 1.000000000000000000 ) ) ;
#35 = ORIENTED_EDGE ( 'NONE', *, *, #98, .F. ) ;
#36 = CC_DESIGN_SECURITY_CLASSIFICATION ( #88, ( #116 ) ) ;
#37 = DIRECTION ( 'NONE',  ( 1.000000000000000000, 0.0000000000000000000, 0.0000000000000000000 ) ) ;
#38 = ADVANCED_BREP_SHAPE_REPRESENTATION ( 'Web Model 47682_14814', ( #50, #57 ), #66 ) ;
#39 = PERSON_AND_ORGANIZATION ( #51, #74 ) ;
#40 = PRODUCT ( 'Web Model 47682_14814', 'Web Model 47682_14814', '', ( #153 ) ) ;
#41 = APPLICATION_CONTEXT ( 'configuration controlled 3d designs of mechanical parts and assemblies' ) ;
#42 = APPROVAL_STATUS ( 'not_yet_approved' ) ;
#43 = CARTESIAN_POINT ( 'NONE',  ( -6.250000000000000000, 0.0000000000000000000, -1.000000000000000000 ) ) ;
#44 = CALENDAR_DATE ( 2020, 7, 10 ) ;
#45 = VERTEX_POINT ( 'NONE', #43 ) ;
#46 = DATE_AND_TIME ( #44, #140 ) ;
#47 = DATE_AND_TIME ( #129, #119 ) ;
#48 = CARTESIAN_POINT ( 'NONE',  ( 0.0000000000000000000, 0.0000000000000000000, 1.000000000000000000 ) ) ;
#49 = CC_DESIGN_APPROVAL ( #30, ( #5 ) ) ;
#50 = MANIFOLD_SOLID_BREP ( 'Boss-Extrude1', #106 ) ;
#51 = PERSON ( 'UNSPECIFIED', 'UNSPECIFIED', 'UNSPECIFIED', ('UNSPECIFIED'), ('UNSPECIFIED'), ('UNSPECIFIED') ) ;
#52 = APPROVAL_ROLE ( '' ) ;
#53 = APPLICATION_PROTOCOL_DEFINITION ( 'international standard', 'config_control_design', 1994, #112 ) ;
#54 = SHAPE_DEFINITION_REPRESENTATION ( #70, #38 ) ;
#55 = PLANE ( 'NONE',  #17 ) ;
#56 = VECTOR ( 'NONE', #146, 1000.000000000000000 ) ;
#57 = AXIS2_PLACEMENT_3D ( 'NONE', #81, #2, #128 ) ;
#58 = APPROVAL ( #85, 'UNSPECIFIED' ) ;
#59 = ORIENTED_EDGE ( 'NONE', *, *, #125, .F. ) ;
#60 = ADVANCED_FACE ( 'NONE', ( #31 ), #55, .T. ) ;
#61 = DIRECTION ( 'NONE',  ( 1.000000000000000000, 0.0000000000000000000, 0.0000000000000000000 ) ) ;
#62 = FACE_OUTER_BOUND ( 'NONE', #131, .T. ) ;
#63 = DIRECTION ( 'NONE',  ( 1.000000000000000000, 0.0000000000000000000, -0.0000000000000000000 ) ) ;
#64 = DIRECTION ( 'NONE',  ( 0.0000000000000000000, 0.0000000000000000000, 1.000000000000000000 ) ) ;
#65 = APPROVAL_STATUS ( 'not_yet_approved' ) ;
#66 =( GEOMETRIC_REPRESENTATION_CONTEXT ( 3 ) GLOBAL_UNCERTAINTY_ASSIGNED_CONTEXT ( ( #122 ) ) GLOBAL_UNIT_ASSIGNED_CONTEXT ( ( #76, #108, #24 ) ) REPRESENTATION_CONTEXT ( 'NONE', 'WORKASPACE' ) );
#67 = VERTEX_POINT ( 'NONE', #26 ) ;
#68 = CC_DESIGN_PERSON_AND_ORGANIZATION_ASSIGNMENT ( #155, #18, ( #116 ) ) ;
#69 = PERSON_AND_ORGANIZATION_ROLE ( 'design_supplier' ) ;
#70 = PRODUCT_DEFINITION_SHAPE ( 'NONE', 'NONE',  #5 ) ;
#71 = DATE_AND_TIME ( #113, #13 ) ;
#72 = EDGE_LOOP ( 'NONE', ( #102, #79 ) ) ;
#73 = CC_DESIGN_PERSON_AND_ORGANIZATION_ASSIGNMENT ( #7, #164, ( #5 ) ) ;
#74 = ORGANIZATION ( 'UNSPECIFIED', 'UNSPECIFIED', '' ) ;
#75 = CC_DESIGN_PERSON_AND_ORGANIZATION_ASSIGNMENT ( #118, #69, ( #116 ) ) ;
#76 =( LENGTH_UNIT ( ) NAMED_UNIT ( * ) SI_UNIT ( .MILLI., .METRE. ) );
#77 = CARTESIAN_POINT ( 'NONE',  ( 6.250000000000000000, 7.654042494670957606E-16, 1.000000000000000000 ) ) ;
#78 = APPROVAL_DATE_TIME ( #46, #30 ) ;
#79 = ORIENTED_EDGE ( 'NONE', *, *, #169, .F. ) ;
#80 = PERSON_AND_ORGANIZATION_ROLE ( 'design_owner' ) ;
#81 = CARTESIAN_POINT ( 'NONE',  ( 0.0000000000000000000, 0.0000000000000000000, 0.0000000000000000000 ) ) ;
#82 = PERSON_AND_ORGANIZATION_ROLE ( 'classification_officer' ) ;
#83 = CIRCLE ( 'NONE', #127, 6.250000000000000000 ) ;
#84 = APPROVAL_DATE_TIME ( #157, #58 ) ;
#85 = APPROVAL_STATUS ( 'not_yet_approved' ) ;
#86 = DATE_AND_TIME ( #95, #21 ) ;
#87 = AXIS2_PLACEMENT_3D ( 'NONE', #20, #8, #63 ) ;
#88 = SECURITY_CLASSIFICATION ( '', '', #166 ) ;
#89 = APPROVAL_DATE_TIME ( #86, #163 ) ;
#90 = ADVANCED_FACE ( 'NONE', ( #173 ), #14, .F. ) ;
#91 = EDGE_CURVE ( 'NONE', #45, #67, #139, .T. ) ;
#92 = DIRECTION ( 'NONE',  ( -1.000000000000000000, 0.0000000000000000000, 0.0000000000000000000 ) ) ;
#93 = CARTESIAN_POINT ( 'NONE',  ( 0.0000000000000000000, 0.0000000000000000000, -1.000000000000000000 ) ) ;
#94 = CARTESIAN_POINT ( 'NONE',  ( 0.0000000000000000000, 0.0000000000000000000, 1.000000000000000000 ) ) ;
#95 = CALENDAR_DATE ( 2020, 7, 10 ) ;
#96 = CC_DESIGN_PERSON_AND_ORGANIZATION_ASSIGNMENT ( #147, #80, ( #40 ) ) ;
#97 = ORIENTED_EDGE ( 'NONE', *, *, #169, .T. ) ;
#98 = EDGE_CURVE ( 'NONE', #135, #152, #138, .T. ) ;
#99 = DIRECTION ( 'NONE',  ( -0.0000000000000000000, -0.0000000000000000000, -1.000000000000000000 ) ) ;
#100 = CARTESIAN_POINT ( 'NONE',  ( 0.0000000000000000000, 0.0000000000000000000, 1.000000000000000000 ) ) ;
#101 = LINE ( 'NONE', #161, #56 ) ;
#102 = ORIENTED_EDGE ( 'NONE', *, *, #91, .F. ) ;
#103 = EDGE_CURVE ( 'NONE', #135, #45, #101, .T. ) ;
#104 = DIRECTION ( 'NONE',  ( -0.0000000000000000000, -0.0000000000000000000, -1.000000000000000000 ) ) ;
#105 = CC_DESIGN_DATE_AND_TIME_ASSIGNMENT ( #71, #28, ( #5 ) ) ;
#106 = CLOSED_SHELL ( 'NONE', ( #33, #160, #60, #90 ) ) ;
#107 = AXIS2_PLACEMENT_3D ( 'NONE', #10, #175, #92 ) ;
#108 =( NAMED_UNIT ( * ) PLANE_ANGLE_UNIT ( ) SI_UNIT ( $, .RADIAN. ) );
#109 = CARTESIAN_POINT ( 'NONE',  ( -6.250000000000000000, 0.0000000000000000000, 1.000000000000000000 ) ) ;
#110 = CALENDAR_DATE ( 2020, 7, 10 ) ;
#111 = ORIENTED_EDGE ( 'NONE', *, *, #98, .T. ) ;
#112 = APPLICATION_CONTEXT ( 'configuration controlled 3d designs of mechanical parts and assemblies' ) ;
#113 = CALENDAR_DATE ( 2020, 7, 10 ) ;
#114 = DIRECTION ( 'NONE',  ( -1.000000000000000000, 0.0000000000000000000, 0.0000000000000000000 ) ) ;
#115 = ORIENTED_EDGE ( 'NONE', *, *, #125, .T. ) ;
#116 = PRODUCT_DEFINITION_FORMATION_WITH_SPECIFIED_SOURCE ( 'ANY', '', #40, .NOT_KNOWN. ) ;
#117 = CC_DESIGN_PERSON_AND_ORGANIZATION_ASSIGNMENT ( #162, #82, ( #88 ) ) ;
#118 = PERSON_AND_ORGANIZATION ( #51, #74 ) ;
#119 = LOCAL_TIME ( 13, 23, 24.00000000000000000, #167 ) ;
#120 = ORIENTED_EDGE ( 'NONE', *, *, #91, .T. ) ;
#121 = DIRECTION ( 'NONE',  ( 0.0000000000000000000, 0.0000000000000000000, 1.000000000000000000 ) ) ;
#122 = UNCERTAINTY_MEASURE_WITH_UNIT (LENGTH_MEASURE( 1.000000000000000082E-05 ), #76, 'distance_accuracy_value', 'NONE');
#123 = APPROVAL_PERSON_ORGANIZATION ( #39, #58, #126 ) ;
#124 = COORDINATED_UNIVERSAL_TIME_OFFSET ( 5, 0, .BEHIND. ) ;
#125 = EDGE_CURVE ( 'NONE', #152, #67, #12, .T. ) ;
#126 = APPROVAL_ROLE ( '' ) ;
#127 = AXIS2_PLACEMENT_3D ( 'NONE', #94, #34, #61 ) ;
#128 = DIRECTION ( 'NONE',  ( 1.000000000000000000, 0.0000000000000000000, 0.0000000000000000000 ) ) ;
#129 = CALENDAR_DATE ( 2020, 7, 10 ) ;
#130 = CC_DESIGN_DATE_AND_TIME_ASSIGNMENT ( #47, #151, ( #88 ) ) ;
#131 = EDGE_LOOP ( 'NONE', ( #59, #35, #29, #120 ) ) ;
#132 = APPROVAL_PERSON_ORGANIZATION ( #159, #163, #154 ) ;
#133 = AXIS2_PLACEMENT_3D ( 'NONE', #172, #148, #37 ) ;
#134 = DIRECTION ( 'NONE',  ( 1.000000000000000000, 0.0000000000000000000, 0.0000000000000000000 ) ) ;
#135 = VERTEX_POINT ( 'NONE', #109 ) ;
#136 = DIRECTION ( 'NONE',  ( 1.000000000000000000, 0.0000000000000000000, 0.0000000000000000000 ) ) ;
#137 = CC_DESIGN_APPROVAL ( #58, ( #116 ) ) ;
#138 = CIRCLE ( 'NONE', #156, 6.250000000000000000 ) ;
#139 = CIRCLE ( 'NONE', #22, 6.250000000000000000 ) ;
#140 = LOCAL_TIME ( 13, 23, 24.00000000000000000, #16 ) ;
#141 = EDGE_LOOP ( 'NONE', ( #9, #115, #97, #165 ) ) ;
#142 = APPROVAL_PERSON_ORGANIZATION ( #170, #30, #52 ) ;
#143 = LOCAL_TIME ( 13, 23, 24.00000000000000000, #4 ) ;
#144 = AXIS2_PLACEMENT_3D ( 'NONE', #100, #99, #114 ) ;
#145 = ORIENTED_EDGE ( 'NONE', *, *, #158, .T. ) ;
#146 = DIRECTION ( 'NONE',  ( -0.0000000000000000000, -0.0000000000000000000, -1.000000000000000000 ) ) ;
#147 = PERSON_AND_ORGANIZATION ( #51, #74 ) ;
#148 = DIRECTION ( 'NONE',  ( 0.0000000000000000000, 0.0000000000000000000, 1.000000000000000000 ) ) ;
#149 = COORDINATED_UNIVERSAL_TIME_OFFSET ( 5, 0, .BEHIND. ) ;
#150 = DESIGN_CONTEXT ( 'detailed design', #112, 'design' ) ;
#151 = DATE_TIME_ROLE ( 'classification_date' ) ;
#152 = VERTEX_POINT ( 'NONE', #174 ) ;
#153 = MECHANICAL_CONTEXT ( 'NONE', #41, 'mechanical' ) ;
#154 = APPROVAL_ROLE ( '' ) ;
#155 = PERSON_AND_ORGANIZATION ( #51, #74 ) ;
#156 = AXIS2_PLACEMENT_3D ( 'NONE', #48, #64, #134 ) ;
#157 = DATE_AND_TIME ( #110, #143 ) ;
#158 = EDGE_CURVE ( 'NONE', #152, #135, #83, .T. ) ;
#159 = PERSON_AND_ORGANIZATION ( #51, #74 ) ;
#160 = ADVANCED_FACE ( 'NONE', ( #62 ), #1, .T. ) ;
#161 = CARTESIAN_POINT ( 'NONE',  ( -6.250000000000000000, 0.0000000000000000000, 1.000000000000000000 ) ) ;
#162 = PERSON_AND_ORGANIZATION ( #51, #74 ) ;
#163 = APPROVAL ( #42, 'UNSPECIFIED' ) ;
#164 = PERSON_AND_ORGANIZATION_ROLE ( 'creator' ) ;
#165 = ORIENTED_EDGE ( 'NONE', *, *, #103, .F. ) ;
#166 = SECURITY_CLASSIFICATION_LEVEL ( 'unclassified' ) ;
#167 = COORDINATED_UNIVERSAL_TIME_OFFSET ( 5, 0, .BEHIND. ) ;
#168 = CARTESIAN_POINT ( 'NONE',  ( 0.0000000000000000000, 0.0000000000000000000, 1.000000000000000000 ) ) ;
#169 = EDGE_CURVE ( 'NONE', #67, #45, #32, .T. ) ;
#170 = PERSON_AND_ORGANIZATION ( #51, #74 ) ;
#171 = VECTOR ( 'NONE', #104, 1000.000000000000000 ) ;
#172 = CARTESIAN_POINT ( 'NONE',  ( 0.0000000000000000000, 0.0000000000000000000, -1.000000000000000000 ) ) ;
#173 = FACE_OUTER_BOUND ( 'NONE', #72, .T. ) ;
#174 = CARTESIAN_POINT ( 'NONE',  ( 6.250000000000000000, 7.654042494670957606E-16, 1.000000000000000000 ) ) ;
#175 = DIRECTION ( 'NONE',  ( -0.0000000000000000000, -0.0000000000000000000, -1.000000000000000000 ) ) ;
ENDSEC;
END-ISO-10303-21;
