ISO-10303-21;
HEADER;
FILE_DESCRIPTION (( 'STEP AP203' ),
    '1' );
FILE_NAME ('Web Model 17218_17218.step',
    '2021-04-08T13:27:54',
    ( '' ),
    ( '' ),
    'SwSTEP 2.0',
    'SolidWorks 2018',
    '' );
FILE_SCHEMA (( 'CONFIG_CONTROL_DESIGN' ));
ENDSEC;

DATA;
#1 = CIRCLE ( 'NONE', #118, 2.500000000000000000 ) ;
#2 = PERSON_AND_ORGANIZATION ( #119, #49 ) ;
#3 = DIRECTION ( 'NONE',  ( -1.000000000000000000, 0.000000000000000000, 0.000000000000000000 ) ) ;
#4 = EDGE_CURVE ( 'NONE', #136, #47, #95, .T. ) ;
#5 = CARTESIAN_POINT ( 'NONE',  ( 2.500000000000000000, 3.061616997868383141E-16, 0.000000000000000000 ) ) ;
#6 = CARTESIAN_POINT ( 'NONE',  ( 2.500000000000000000, 3.061616997868383141E-16, 0.5000000000000000000 ) ) ;
#7 = PERSON_AND_ORGANIZATION_ROLE ( 'design_owner' ) ;
#8 = ADVANCED_FACE ( 'NONE', ( #98 ), #68, .T. ) ;
#9 = DATE_AND_TIME ( #148, #26 ) ;
#10 = AXIS2_PLACEMENT_3D ( 'NONE', #57, #133, #150 ) ;
#11 = CC_DESIGN_APPROVAL ( #153, ( #173 ) ) ;
#12 = ORIENTED_EDGE ( 'NONE', *, *, #146, .T. ) ;
#13 = EDGE_CURVE ( 'NONE', #157, #136, #159, .T. ) ;
#14 = CC_DESIGN_DATE_AND_TIME_ASSIGNMENT ( #34, #45, ( #173 ) ) ;
#15 = DIRECTION ( 'NONE',  ( 1.000000000000000000, 0.000000000000000000, -0.000000000000000000 ) ) ;
#16 = COORDINATED_UNIVERSAL_TIME_OFFSET ( 5, 0, .BEHIND. ) ;
#17 = DIRECTION ( 'NONE',  ( 1.000000000000000000, 0.000000000000000000, 0.000000000000000000 ) ) ;
#18 = APPROVAL_STATUS ( 'not_yet_approved' ) ;
#19 = AXIS2_PLACEMENT_3D ( 'NONE', #134, #42, #15 ) ;
#20 = ADVANCED_FACE ( 'NONE', ( #109 ), #107, .F. ) ;
#21 = CARTESIAN_POINT ( 'NONE',  ( 0.000000000000000000, 0.000000000000000000, 0.000000000000000000 ) ) ;
#22 = SECURITY_CLASSIFICATION ( '', '', #44 ) ;
#23 = APPLICATION_PROTOCOL_DEFINITION ( 'international standard', 'config_control_design', 1994, #64 ) ;
#24 = CLOSED_SHELL ( 'NONE', ( #127, #8, #63, #20 ) ) ;
#25 = CC_DESIGN_PERSON_AND_ORGANIZATION_ASSIGNMENT ( #99, #101, ( #106 ) ) ;
#26 = LOCAL_TIME ( 9, 27, 54.00000000000000000, #29 ) ;
#27 = APPROVAL_PERSON_ORGANIZATION ( #40, #145, #137 ) ;
#28 = LOCAL_TIME ( 9, 27, 54.00000000000000000, #16 ) ;
#29 = COORDINATED_UNIVERSAL_TIME_OFFSET ( 5, 0, .BEHIND. ) ;
#30 = CC_DESIGN_PERSON_AND_ORGANIZATION_ASSIGNMENT ( #54, #7, ( #102 ) ) ;
#31 = DIRECTION ( 'NONE',  ( -1.000000000000000000, 0.000000000000000000, 0.000000000000000000 ) ) ;
#32 = UNCERTAINTY_MEASURE_WITH_UNIT (LENGTH_MEASURE( 1.000000000000000082E-05 ), #151, 'distance_accuracy_value', 'NONE');
#33 = APPROVAL_STATUS ( 'not_yet_approved' ) ;
#34 = DATE_AND_TIME ( #73, #28 ) ;
#35 =( GEOMETRIC_REPRESENTATION_CONTEXT ( 3 ) GLOBAL_UNCERTAINTY_ASSIGNED_CONTEXT ( ( #32 ) ) GLOBAL_UNIT_ASSIGNED_CONTEXT ( ( #151, #138, #100 ) ) REPRESENTATION_CONTEXT ( 'NONE', 'WORKASPACE' ) );
#36 = ORIENTED_EDGE ( 'NONE', *, *, #4, .F. ) ;
#37 = ADVANCED_BREP_SHAPE_REPRESENTATION ( 'Web Model 17218_17218', ( #162, #80 ), #35 ) ;
#38 = CC_DESIGN_APPROVAL ( #145, ( #22 ) ) ;
#39 = VERTEX_POINT ( 'NONE', #96 ) ;
#40 = PERSON_AND_ORGANIZATION ( #119, #49 ) ;
#41 = DIRECTION ( 'NONE',  ( -0.000000000000000000, -0.000000000000000000, -1.000000000000000000 ) ) ;
#42 = DIRECTION ( 'NONE',  ( 0.000000000000000000, 0.000000000000000000, 1.000000000000000000 ) ) ;
#43 = PERSON_AND_ORGANIZATION_ROLE ( 'creator' ) ;
#44 = SECURITY_CLASSIFICATION_LEVEL ( 'unclassified' ) ;
#45 = DATE_TIME_ROLE ( 'creation_date' ) ;
#46 = CARTESIAN_POINT ( 'NONE',  ( -2.500000000000000000, 0.000000000000000000, 0.5000000000000000000 ) ) ;
#47 = VERTEX_POINT ( 'NONE', #5 ) ;
#48 = PRODUCT_RELATED_PRODUCT_CATEGORY ( 'detail', '', ( #102 ) ) ;
#49 = ORGANIZATION ( 'UNSPECIFIED', 'UNSPECIFIED', '' ) ;
#50 = LOCAL_TIME ( 9, 27, 54.00000000000000000, #91 ) ;
#51 = ORIENTED_EDGE ( 'NONE', *, *, #116, .T. ) ;
#52 = APPROVAL ( #18, 'UNSPECIFIED' ) ;
#53 = DIRECTION ( 'NONE',  ( -0.000000000000000000, -0.000000000000000000, -1.000000000000000000 ) ) ;
#54 = PERSON_AND_ORGANIZATION ( #119, #49 ) ;
#55 = CARTESIAN_POINT ( 'NONE',  ( 0.000000000000000000, 0.000000000000000000, 0.000000000000000000 ) ) ;
#56 = CARTESIAN_POINT ( 'NONE',  ( 0.000000000000000000, 0.000000000000000000, 0.5000000000000000000 ) ) ;
#57 = CARTESIAN_POINT ( 'NONE',  ( 0.000000000000000000, 0.000000000000000000, 0.5000000000000000000 ) ) ;
#58 = AXIS2_PLACEMENT_3D ( 'NONE', #56, #70, #31 ) ;
#59 = ORIENTED_EDGE ( 'NONE', *, *, #146, .F. ) ;
#60 = PERSON_AND_ORGANIZATION ( #119, #49 ) ;
#61 = CARTESIAN_POINT ( 'NONE',  ( 0.000000000000000000, 0.000000000000000000, 0.5000000000000000000 ) ) ;
#62 = APPLICATION_PROTOCOL_DEFINITION ( 'international standard', 'config_control_design', 1994, #75 ) ;
#63 = ADVANCED_FACE ( 'NONE', ( #79 ), #83, .T. ) ;
#64 = APPLICATION_CONTEXT ( 'configuration controlled 3d designs of mechanical parts and assemblies' ) ;
#65 = DIRECTION ( 'NONE',  ( 1.000000000000000000, 0.000000000000000000, 0.000000000000000000 ) ) ;
#66 = LOCAL_TIME ( 9, 27, 54.00000000000000000, #104 ) ;
#67 = CALENDAR_DATE ( 2021, 8, 4 ) ;
#68 = CYLINDRICAL_SURFACE ( 'NONE', #92, 2.500000000000000000 ) ;
#69 = EDGE_LOOP ( 'NONE', ( #167, #12, #172, #121 ) ) ;
#70 = DIRECTION ( 'NONE',  ( -0.000000000000000000, -0.000000000000000000, -1.000000000000000000 ) ) ;
#71 = CIRCLE ( 'NONE', #10, 2.500000000000000000 ) ;
#72 = APPROVAL_DATE_TIME ( #9, #145 ) ;
#73 = CALENDAR_DATE ( 2021, 8, 4 ) ;
#74 = CARTESIAN_POINT ( 'NONE',  ( 0.000000000000000000, 0.000000000000000000, 0.000000000000000000 ) ) ;
#75 = APPLICATION_CONTEXT ( 'configuration controlled 3d designs of mechanical parts and assemblies' ) ;
#76 = DIRECTION ( 'NONE',  ( -0.000000000000000000, -0.000000000000000000, -1.000000000000000000 ) ) ;
#77 = FACE_OUTER_BOUND ( 'NONE', #69, .T. ) ;
#78 = APPROVAL_DATE_TIME ( #141, #52 ) ;
#79 = FACE_OUTER_BOUND ( 'NONE', #152, .T. ) ;
#80 = AXIS2_PLACEMENT_3D ( 'NONE', #21, #117, #87 ) ;
#81 = ORIENTED_EDGE ( 'NONE', *, *, #143, .T. ) ;
#82 = VECTOR ( 'NONE', #53, 1000.000000000000000 ) ;
#83 = PLANE ( 'NONE',  #19 ) ;
#84 = SHAPE_DEFINITION_REPRESENTATION ( #103, #37 ) ;
#85 = DIRECTION ( 'NONE',  ( 1.000000000000000000, 0.000000000000000000, 0.000000000000000000 ) ) ;
#86 = EDGE_LOOP ( 'NONE', ( #36, #147 ) ) ;
#87 = DIRECTION ( 'NONE',  ( 1.000000000000000000, 0.000000000000000000, 0.000000000000000000 ) ) ;
#88 = CC_DESIGN_PERSON_AND_ORGANIZATION_ASSIGNMENT ( #90, #97, ( #22 ) ) ;
#89 = MECHANICAL_CONTEXT ( 'NONE', #64, 'mechanical' ) ;
#90 = PERSON_AND_ORGANIZATION ( #119, #49 ) ;
#91 = COORDINATED_UNIVERSAL_TIME_OFFSET ( 5, 0, .BEHIND. ) ;
#92 = AXIS2_PLACEMENT_3D ( 'NONE', #163, #41, #3 ) ;
#93 = CALENDAR_DATE ( 2021, 8, 4 ) ;
#94 = VECTOR ( 'NONE', #76, 1000.000000000000000 ) ;
#95 = CIRCLE ( 'NONE', #131, 2.500000000000000000 ) ;
#96 = CARTESIAN_POINT ( 'NONE',  ( 2.500000000000000000, 3.061616997868383141E-16, 0.5000000000000000000 ) ) ;
#97 = PERSON_AND_ORGANIZATION_ROLE ( 'classification_officer' ) ;
#98 = FACE_OUTER_BOUND ( 'NONE', #132, .T. ) ;
#99 = PERSON_AND_ORGANIZATION ( #119, #49 ) ;
#100 =( NAMED_UNIT ( * ) SI_UNIT ( $, .STERADIAN. ) SOLID_ANGLE_UNIT ( ) );
#101 = PERSON_AND_ORGANIZATION_ROLE ( 'design_supplier' ) ;
#102 = PRODUCT ( 'Web Model 17218_17218', 'Web Model 17218_17218', '', ( #89 ) ) ;
#103 = PRODUCT_DEFINITION_SHAPE ( 'NONE', 'NONE',  #173 ) ;
#104 = COORDINATED_UNIVERSAL_TIME_OFFSET ( 5, 0, .BEHIND. ) ;
#105 = APPROVAL_DATE_TIME ( #144, #153 ) ;
#106 = PRODUCT_DEFINITION_FORMATION_WITH_SPECIFIED_SOURCE ( 'ANY', '', #102, .NOT_KNOWN. ) ;
#107 = PLANE ( 'NONE',  #164 ) ;
#108 = DIRECTION ( 'NONE',  ( 0.000000000000000000, 0.000000000000000000, 1.000000000000000000 ) ) ;
#109 = FACE_OUTER_BOUND ( 'NONE', #86, .T. ) ;
#110 = CC_DESIGN_PERSON_AND_ORGANIZATION_ASSIGNMENT ( #175, #43, ( #106 ) ) ;
#111 = PERSON_AND_ORGANIZATION ( #119, #49 ) ;
#112 = DIRECTION ( 'NONE',  ( 0.000000000000000000, 0.000000000000000000, 1.000000000000000000 ) ) ;
#113 = CC_DESIGN_PERSON_AND_ORGANIZATION_ASSIGNMENT ( #111, #171, ( #173 ) ) ;
#114 = CARTESIAN_POINT ( 'NONE',  ( 0.000000000000000000, 0.000000000000000000, 0.000000000000000000 ) ) ;
#115 = DATE_TIME_ROLE ( 'classification_date' ) ;
#116 = EDGE_CURVE ( 'NONE', #157, #39, #71, .T. ) ;
#117 = DIRECTION ( 'NONE',  ( 0.000000000000000000, 0.000000000000000000, 1.000000000000000000 ) ) ;
#118 = AXIS2_PLACEMENT_3D ( 'NONE', #61, #128, #65 ) ;
#119 = PERSON ( 'UNSPECIFIED', 'UNSPECIFIED', 'UNSPECIFIED', ('UNSPECIFIED'), ('UNSPECIFIED'), ('UNSPECIFIED') ) ;
#120 = CC_DESIGN_DATE_AND_TIME_ASSIGNMENT ( #139, #115, ( #22 ) ) ;
#121 = ORIENTED_EDGE ( 'NONE', *, *, #13, .F. ) ;
#122 = ORIENTED_EDGE ( 'NONE', *, *, #4, .T. ) ;
#123 = APPROVAL_PERSON_ORGANIZATION ( #60, #153, #154 ) ;
#124 = CARTESIAN_POINT ( 'NONE',  ( -2.500000000000000000, 0.000000000000000000, 0.5000000000000000000 ) ) ;
#125 = LOCAL_TIME ( 9, 27, 54.00000000000000000, #160 ) ;
#126 = DIRECTION ( 'NONE',  ( 0.000000000000000000, 0.000000000000000000, 1.000000000000000000 ) ) ;
#127 = ADVANCED_FACE ( 'NONE', ( #77 ), #129, .T. ) ;
#128 = DIRECTION ( 'NONE',  ( 0.000000000000000000, 0.000000000000000000, 1.000000000000000000 ) ) ;
#129 = CYLINDRICAL_SURFACE ( 'NONE', #58, 2.500000000000000000 ) ;
#130 = EDGE_CURVE ( 'NONE', #47, #136, #135, .T. ) ;
#131 = AXIS2_PLACEMENT_3D ( 'NONE', #74, #112, #85 ) ;
#132 = EDGE_LOOP ( 'NONE', ( #59, #140, #174, #122 ) ) ;
#133 = DIRECTION ( 'NONE',  ( 0.000000000000000000, 0.000000000000000000, 1.000000000000000000 ) ) ;
#134 = CARTESIAN_POINT ( 'NONE',  ( 0.000000000000000000, 0.000000000000000000, 0.5000000000000000000 ) ) ;
#135 = CIRCLE ( 'NONE', #156, 2.500000000000000000 ) ;
#136 = VERTEX_POINT ( 'NONE', #169 ) ;
#137 = APPROVAL_ROLE ( '' ) ;
#138 =( NAMED_UNIT ( * ) PLANE_ANGLE_UNIT ( ) SI_UNIT ( $, .RADIAN. ) );
#139 = DATE_AND_TIME ( #67, #66 ) ;
#140 = ORIENTED_EDGE ( 'NONE', *, *, #116, .F. ) ;
#141 = DATE_AND_TIME ( #93, #125 ) ;
#142 = CC_DESIGN_APPROVAL ( #52, ( #106 ) ) ;
#143 = EDGE_CURVE ( 'NONE', #39, #157, #1, .T. ) ;
#144 = DATE_AND_TIME ( #149, #50 ) ;
#145 = APPROVAL ( #170, 'UNSPECIFIED' ) ;
#146 = EDGE_CURVE ( 'NONE', #39, #47, #158, .T. ) ;
#147 = ORIENTED_EDGE ( 'NONE', *, *, #130, .F. ) ;
#148 = CALENDAR_DATE ( 2021, 8, 4 ) ;
#149 = CALENDAR_DATE ( 2021, 8, 4 ) ;
#150 = DIRECTION ( 'NONE',  ( 1.000000000000000000, 0.000000000000000000, 0.000000000000000000 ) ) ;
#151 =( LENGTH_UNIT ( ) NAMED_UNIT ( * ) SI_UNIT ( .MILLI., .METRE. ) );
#152 = EDGE_LOOP ( 'NONE', ( #51, #81 ) ) ;
#153 = APPROVAL ( #33, 'UNSPECIFIED' ) ;
#154 = APPROVAL_ROLE ( '' ) ;
#155 = APPROVAL_ROLE ( '' ) ;
#156 = AXIS2_PLACEMENT_3D ( 'NONE', #114, #126, #17 ) ;
#157 = VERTEX_POINT ( 'NONE', #46 ) ;
#158 = LINE ( 'NONE', #6, #94 ) ;
#159 = LINE ( 'NONE', #124, #82 ) ;
#160 = COORDINATED_UNIVERSAL_TIME_OFFSET ( 5, 0, .BEHIND. ) ;
#161 = CC_DESIGN_SECURITY_CLASSIFICATION ( #22, ( #106 ) ) ;
#162 = MANIFOLD_SOLID_BREP ( 'Boss-Extrude1', #24 ) ;
#163 = CARTESIAN_POINT ( 'NONE',  ( 0.000000000000000000, 0.000000000000000000, 0.5000000000000000000 ) ) ;
#164 = AXIS2_PLACEMENT_3D ( 'NONE', #55, #108, #165 ) ;
#165 = DIRECTION ( 'NONE',  ( 1.000000000000000000, 0.000000000000000000, -0.000000000000000000 ) ) ;
#166 = DESIGN_CONTEXT ( 'detailed design', #75, 'design' ) ;
#167 = ORIENTED_EDGE ( 'NONE', *, *, #143, .F. ) ;
#168 = APPROVAL_PERSON_ORGANIZATION ( #2, #52, #155 ) ;
#169 = CARTESIAN_POINT ( 'NONE',  ( -2.500000000000000000, 0.000000000000000000, 0.000000000000000000 ) ) ;
#170 = APPROVAL_STATUS ( 'not_yet_approved' ) ;
#171 = PERSON_AND_ORGANIZATION_ROLE ( 'creator' ) ;
#172 = ORIENTED_EDGE ( 'NONE', *, *, #130, .T. ) ;
#173 = PRODUCT_DEFINITION ( 'UNKNOWN', '', #106, #166 ) ;
#174 = ORIENTED_EDGE ( 'NONE', *, *, #13, .T. ) ;
#175 = PERSON_AND_ORGANIZATION ( #119, #49 ) ;
ENDSEC;
END-ISO-10303-21;
