ISO-10303-21;
HEADER;
FILE_DESCRIPTION (( 'STEP AP203' ),
    '1' );
FILE_NAME ('Web Model 46458_46458.step',
    '2018-03-15T18:32:06',
    ( '' ),
    ( '' ),
    'SwSTEP 2.0',
    'SolidWorks 2016',
    '' );
FILE_SCHEMA (( 'CONFIG_CONTROL_DESIGN' ));
ENDSEC;

DATA;
#1 = LOCAL_TIME ( 14, 32, 6.000000000000000000, #25 ) ;
#2 = APPROVAL_PERSON_ORGANIZATION ( #145, #55, #68 ) ;
#3 = AXIS2_PLACEMENT_3D ( 'NONE', #61, #171, #114 ) ;
#4 = PERSON_AND_ORGANIZATION ( #106, #40 ) ;
#5 = SECURITY_CLASSIFICATION ( '', '', #128 ) ;
#6 =( LENGTH_UNIT ( ) NAMED_UNIT ( * ) SI_UNIT ( .MILLI., .METRE. ) );
#7 = DIRECTION ( 'NONE',  ( 1.000000000000000000, 0.0000000000000000000, 0.0000000000000000000 ) ) ;
#8 = AXIS2_PLACEMENT_3D ( 'NONE', #141, #23, #59 ) ;
#9 = PLANE ( 'NONE',  #3 ) ;
#10 = DIRECTION ( 'NONE',  ( 0.0000000000000000000, 0.0000000000000000000, -1.000000000000000000 ) ) ;
#11 = EDGE_CURVE ( 'NONE', #134, #104, #83, .T. ) ;
#12 = ORIENTED_EDGE ( 'NONE', *, *, #105, .F. ) ;
#13 = ORIENTED_EDGE ( 'NONE', *, *, #126, .F. ) ;
#14 = CIRCLE ( 'NONE', #76, 12.69999999999999900 ) ;
#15 = FACE_OUTER_BOUND ( 'NONE', #129, .T. ) ;
#16 = DIRECTION ( 'NONE',  ( 1.000000000000000000, 0.0000000000000000000, 0.0000000000000000000 ) ) ;
#17 = VERTEX_POINT ( 'NONE', #137 ) ;
#18 = APPROVAL_ROLE ( '' ) ;
#19 = CARTESIAN_POINT ( 'NONE',  ( -0.7500000000000000000, 0.0000000000000000000, 0.0000000000000000000 ) ) ;
#20 = CARTESIAN_POINT ( 'NONE',  ( 0.7500000000000000000, 0.0000000000000000000, 12.69999999999999900 ) ) ;
#21 = MECHANICAL_CONTEXT ( 'NONE', #111, 'mechanical' ) ;
#22 = CALENDAR_DATE ( 2018, 15, 3 ) ;
#23 = DIRECTION ( 'NONE',  ( -1.000000000000000000, -0.0000000000000000000, -0.0000000000000000000 ) ) ;
#24 = CC_DESIGN_DATE_AND_TIME_ASSIGNMENT ( #108, #156, ( #5 ) ) ;
#25 = COORDINATED_UNIVERSAL_TIME_OFFSET ( 5, 0, .BEHIND. ) ;
#26 = LINE ( 'NONE', #48, #57 ) ;
#27 = CC_DESIGN_PERSON_AND_ORGANIZATION_ASSIGNMENT ( #91, #45, ( #173 ) ) ;
#28 = LOCAL_TIME ( 14, 32, 6.000000000000000000, #64 ) ;
#29 = LOCAL_TIME ( 14, 32, 6.000000000000000000, #131 ) ;
#30 = APPROVAL ( #60, 'UNSPECIFIED' ) ;
#31 = PERSON_AND_ORGANIZATION_ROLE ( 'creator' ) ;
#32 =( NAMED_UNIT ( * ) PLANE_ANGLE_UNIT ( ) SI_UNIT ( $, .RADIAN. ) );
#33 = CALENDAR_DATE ( 2018, 15, 3 ) ;
#34 = APPROVAL_STATUS ( 'not_yet_approved' ) ;
#35 = DIRECTION ( 'NONE',  ( 0.0000000000000000000, 0.0000000000000000000, -1.000000000000000000 ) ) ;
#36 = ADVANCED_BREP_SHAPE_REPRESENTATION ( 'Web Model 46458_46458', ( #80, #66 ), #117 ) ;
#37 = PRODUCT_DEFINITION_FORMATION_WITH_SPECIFIED_SOURCE ( 'ANY', '', #173, .NOT_KNOWN. ) ;
#38 = DIRECTION ( 'NONE',  ( -1.000000000000000000, -0.0000000000000000000, -0.0000000000000000000 ) ) ;
#39 = CARTESIAN_POINT ( 'NONE',  ( 0.7500000000000000000, 0.0000000000000000000, 0.0000000000000000000 ) ) ;
#40 = ORGANIZATION ( 'UNSPECIFIED', 'UNSPECIFIED', '' ) ;
#41 = CC_DESIGN_PERSON_AND_ORGANIZATION_ASSIGNMENT ( #159, #142, ( #5 ) ) ;
#42 = CIRCLE ( 'NONE', #82, 12.69999999999999900 ) ;
#43 = APPROVAL ( #34, 'UNSPECIFIED' ) ;
#44 = PERSON_AND_ORGANIZATION ( #106, #40 ) ;
#45 = PERSON_AND_ORGANIZATION_ROLE ( 'design_owner' ) ;
#46 = EDGE_LOOP ( 'NONE', ( #149, #81 ) ) ;
#47 = APPLICATION_PROTOCOL_DEFINITION ( 'international standard', 'config_control_design', 1994, #111 ) ;
#48 = CARTESIAN_POINT ( 'NONE',  ( 0.7500000000000000000, 1.555301434917138400E-015, -12.69999999999999900 ) ) ;
#49 = CC_DESIGN_APPROVAL ( #30, ( #5 ) ) ;
#50 = VECTOR ( 'NONE', #86, 1000.000000000000000 ) ;
#51 = CIRCLE ( 'NONE', #100, 12.69999999999999900 ) ;
#52 = CC_DESIGN_APPROVAL ( #43, ( #37 ) ) ;
#53 = ADVANCED_FACE ( 'NONE', ( #67 ), #110, .T. ) ;
#54 = PERSON_AND_ORGANIZATION ( #106, #40 ) ;
#55 = APPROVAL ( #136, 'UNSPECIFIED' ) ;
#56 = PERSON_AND_ORGANIZATION_ROLE ( 'design_supplier' ) ;
#57 = VECTOR ( 'NONE', #38, 1000.000000000000000 ) ;
#58 = COORDINATED_UNIVERSAL_TIME_OFFSET ( 5, 0, .BEHIND. ) ;
#59 = DIRECTION ( 'NONE',  ( 0.0000000000000000000, 0.0000000000000000000, 1.000000000000000000 ) ) ;
#60 = APPROVAL_STATUS ( 'not_yet_approved' ) ;
#61 = CARTESIAN_POINT ( 'NONE',  ( -0.7500000000000000000, 0.0000000000000000000, 0.0000000000000000000 ) ) ;
#62 = PERSON_AND_ORGANIZATION ( #106, #40 ) ;
#63 = CC_DESIGN_SECURITY_CLASSIFICATION ( #5, ( #37 ) ) ;
#64 = COORDINATED_UNIVERSAL_TIME_OFFSET ( 5, 0, .BEHIND. ) ;
#65 = UNCERTAINTY_MEASURE_WITH_UNIT (LENGTH_MEASURE( 1.000000000000000100E-005 ), #6, 'distance_accuracy_value', 'NONE');
#66 = AXIS2_PLACEMENT_3D ( 'NONE', #85, #95, #16 ) ;
#67 = FACE_OUTER_BOUND ( 'NONE', #87, .T. ) ;
#68 = APPROVAL_ROLE ( '' ) ;
#69 =( NAMED_UNIT ( * ) SI_UNIT ( $, .STERADIAN. ) SOLID_ANGLE_UNIT ( ) );
#70 = SHAPE_DEFINITION_REPRESENTATION ( #77, #36 ) ;
#71 = CARTESIAN_POINT ( 'NONE',  ( -0.7500000000000000000, 1.555301434917138400E-015, -12.69999999999999900 ) ) ;
#72 = EDGE_CURVE ( 'NONE', #104, #134, #42, .T. ) ;
#73 = APPROVAL_DATE_TIME ( #175, #55 ) ;
#74 = DIRECTION ( 'NONE',  ( 1.000000000000000000, 0.0000000000000000000, 0.0000000000000000000 ) ) ;
#75 = PRODUCT_RELATED_PRODUCT_CATEGORY ( 'detail', '', ( #173 ) ) ;
#76 = AXIS2_PLACEMENT_3D ( 'NONE', #39, #74, #168 ) ;
#77 = PRODUCT_DEFINITION_SHAPE ( 'NONE', 'NONE',  #150 ) ;
#78 = FACE_OUTER_BOUND ( 'NONE', #153, .T. ) ;
#79 = CC_DESIGN_PERSON_AND_ORGANIZATION_ASSIGNMENT ( #4, #165, ( #150 ) ) ;
#80 = MANIFOLD_SOLID_BREP ( 'Boss-Extrude1', #158 ) ;
#81 = ORIENTED_EDGE ( 'NONE', *, *, #72, .F. ) ;
#82 = AXIS2_PLACEMENT_3D ( 'NONE', #151, #99, #35 ) ;
#83 = CIRCLE ( 'NONE', #122, 12.69999999999999900 ) ;
#84 = DATE_AND_TIME ( #22, #163 ) ;
#85 = CARTESIAN_POINT ( 'NONE',  ( 0.0000000000000000000, 0.0000000000000000000, 0.0000000000000000000 ) ) ;
#86 = DIRECTION ( 'NONE',  ( -1.000000000000000000, -0.0000000000000000000, -0.0000000000000000000 ) ) ;
#87 = EDGE_LOOP ( 'NONE', ( #98, #167 ) ) ;
#88 = CC_DESIGN_PERSON_AND_ORGANIZATION_ASSIGNMENT ( #62, #31, ( #37 ) ) ;
#89 = CARTESIAN_POINT ( 'NONE',  ( 0.7500000000000000000, 0.0000000000000000000, 0.0000000000000000000 ) ) ;
#90 = DIRECTION ( 'NONE',  ( 0.0000000000000000000, 0.0000000000000000000, 1.000000000000000000 ) ) ;
#91 = PERSON_AND_ORGANIZATION ( #106, #40 ) ;
#92 = APPROVAL_DATE_TIME ( #130, #43 ) ;
#93 = CYLINDRICAL_SURFACE ( 'NONE', #8, 12.69999999999999900 ) ;
#94 = PERSON_AND_ORGANIZATION ( #106, #40 ) ;
#95 = DIRECTION ( 'NONE',  ( 0.0000000000000000000, 0.0000000000000000000, 1.000000000000000000 ) ) ;
#96 = DATE_TIME_ROLE ( 'creation_date' ) ;
#97 = DIRECTION ( 'NONE',  ( 0.0000000000000000000, 0.0000000000000000000, -1.000000000000000000 ) ) ;
#98 = ORIENTED_EDGE ( 'NONE', *, *, #126, .T. ) ;
#99 = DIRECTION ( 'NONE',  ( 1.000000000000000000, 0.0000000000000000000, 0.0000000000000000000 ) ) ;
#100 = AXIS2_PLACEMENT_3D ( 'NONE', #155, #172, #10 ) ;
#101 = LOCAL_TIME ( 14, 32, 6.000000000000000000, #58 ) ;
#102 = DIRECTION ( 'NONE',  ( -1.000000000000000000, -0.0000000000000000000, -0.0000000000000000000 ) ) ;
#103 = EDGE_CURVE ( 'NONE', #118, #134, #115, .T. ) ;
#104 = VERTEX_POINT ( 'NONE', #71 ) ;
#105 = EDGE_CURVE ( 'NONE', #17, #118, #51, .T. ) ;
#106 = PERSON ( 'UNSPECIFIED', 'UNSPECIFIED', 'UNSPECIFIED', ('UNSPECIFIED'), ('UNSPECIFIED'), ('UNSPECIFIED') ) ;
#107 = ORIENTED_EDGE ( 'NONE', *, *, #148, .F. ) ;
#108 = DATE_AND_TIME ( #166, #1 ) ;
#109 = ORIENTED_EDGE ( 'NONE', *, *, #72, .T. ) ;
#110 = PLANE ( 'NONE',  #140 ) ;
#111 = APPLICATION_CONTEXT ( 'configuration controlled 3d designs of mechanical parts and assemblies' ) ;
#112 = DIRECTION ( 'NONE',  ( 1.000000000000000000, 0.0000000000000000000, 0.0000000000000000000 ) ) ;
#113 = FACE_OUTER_BOUND ( 'NONE', #46, .T. ) ;
#114 = DIRECTION ( 'NONE',  ( 0.0000000000000000000, 0.0000000000000000000, -1.000000000000000000 ) ) ;
#115 = LINE ( 'NONE', #20, #50 ) ;
#116 = ADVANCED_FACE ( 'NONE', ( #15 ), #93, .T. ) ;
#117 =( GEOMETRIC_REPRESENTATION_CONTEXT ( 3 ) GLOBAL_UNCERTAINTY_ASSIGNED_CONTEXT ( ( #65 ) ) GLOBAL_UNIT_ASSIGNED_CONTEXT ( ( #6, #32, #69 ) ) REPRESENTATION_CONTEXT ( 'NONE', 'WORKASPACE' ) );
#118 = VERTEX_POINT ( 'NONE', #157 ) ;
#119 = ADVANCED_FACE ( 'NONE', ( #113 ), #9, .F. ) ;
#120 = APPROVAL_PERSON_ORGANIZATION ( #44, #30, #169 ) ;
#121 = ORIENTED_EDGE ( 'NONE', *, *, #148, .T. ) ;
#122 = AXIS2_PLACEMENT_3D ( 'NONE', #19, #7, #97 ) ;
#123 = ORIENTED_EDGE ( 'NONE', *, *, #11, .T. ) ;
#124 = CC_DESIGN_PERSON_AND_ORGANIZATION_ASSIGNMENT ( #54, #56, ( #37 ) ) ;
#125 = APPLICATION_PROTOCOL_DEFINITION ( 'international standard', 'config_control_design', 1994, #152 ) ;
#126 = EDGE_CURVE ( 'NONE', #118, #17, #14, .T. ) ;
#127 = CARTESIAN_POINT ( 'NONE',  ( 0.7500000000000000000, 0.0000000000000000000, 0.0000000000000000000 ) ) ;
#128 = SECURITY_CLASSIFICATION_LEVEL ( 'unclassified' ) ;
#129 = EDGE_LOOP ( 'NONE', ( #107, #13, #147, #123 ) ) ;
#130 = DATE_AND_TIME ( #164, #101 ) ;
#131 = COORDINATED_UNIVERSAL_TIME_OFFSET ( 5, 0, .BEHIND. ) ;
#132 = AXIS2_PLACEMENT_3D ( 'NONE', #89, #102, #90 ) ;
#133 = DATE_AND_TIME ( #135, #29 ) ;
#134 = VERTEX_POINT ( 'NONE', #154 ) ;
#135 = CALENDAR_DATE ( 2018, 15, 3 ) ;
#136 = APPROVAL_STATUS ( 'not_yet_approved' ) ;
#137 = CARTESIAN_POINT ( 'NONE',  ( 0.7500000000000000000, 1.555301434917138400E-015, -12.69999999999999900 ) ) ;
#138 = DIRECTION ( 'NONE',  ( 0.0000000000000000000, 0.0000000000000000000, -1.000000000000000000 ) ) ;
#139 = CYLINDRICAL_SURFACE ( 'NONE', #132, 12.69999999999999900 ) ;
#140 = AXIS2_PLACEMENT_3D ( 'NONE', #127, #112, #138 ) ;
#141 = CARTESIAN_POINT ( 'NONE',  ( 0.7500000000000000000, 0.0000000000000000000, 0.0000000000000000000 ) ) ;
#142 = PERSON_AND_ORGANIZATION_ROLE ( 'classification_officer' ) ;
#143 = APPROVAL_DATE_TIME ( #84, #30 ) ;
#144 = CC_DESIGN_APPROVAL ( #55, ( #150 ) ) ;
#145 = PERSON_AND_ORGANIZATION ( #106, #40 ) ;
#146 = ADVANCED_FACE ( 'NONE', ( #78 ), #139, .T. ) ;
#147 = ORIENTED_EDGE ( 'NONE', *, *, #103, .T. ) ;
#148 = EDGE_CURVE ( 'NONE', #17, #104, #26, .T. ) ;
#149 = ORIENTED_EDGE ( 'NONE', *, *, #11, .F. ) ;
#150 = PRODUCT_DEFINITION ( 'UNKNOWN', '', #37, #174 ) ;
#151 = CARTESIAN_POINT ( 'NONE',  ( -0.7500000000000000000, 0.0000000000000000000, 0.0000000000000000000 ) ) ;
#152 = APPLICATION_CONTEXT ( 'configuration controlled 3d designs of mechanical parts and assemblies' ) ;
#153 = EDGE_LOOP ( 'NONE', ( #12, #121, #109, #160 ) ) ;
#154 = CARTESIAN_POINT ( 'NONE',  ( -0.7500000000000000000, 0.0000000000000000000, 12.69999999999999900 ) ) ;
#155 = CARTESIAN_POINT ( 'NONE',  ( 0.7500000000000000000, 0.0000000000000000000, 0.0000000000000000000 ) ) ;
#156 = DATE_TIME_ROLE ( 'classification_date' ) ;
#157 = CARTESIAN_POINT ( 'NONE',  ( 0.7500000000000000000, 0.0000000000000000000, 12.69999999999999900 ) ) ;
#158 = CLOSED_SHELL ( 'NONE', ( #146, #116, #53, #119 ) ) ;
#159 = PERSON_AND_ORGANIZATION ( #106, #40 ) ;
#160 = ORIENTED_EDGE ( 'NONE', *, *, #103, .F. ) ;
#161 = CC_DESIGN_DATE_AND_TIME_ASSIGNMENT ( #133, #96, ( #150 ) ) ;
#162 = COORDINATED_UNIVERSAL_TIME_OFFSET ( 5, 0, .BEHIND. ) ;
#163 = LOCAL_TIME ( 14, 32, 6.000000000000000000, #162 ) ;
#164 = CALENDAR_DATE ( 2018, 15, 3 ) ;
#165 = PERSON_AND_ORGANIZATION_ROLE ( 'creator' ) ;
#166 = CALENDAR_DATE ( 2018, 15, 3 ) ;
#167 = ORIENTED_EDGE ( 'NONE', *, *, #105, .T. ) ;
#168 = DIRECTION ( 'NONE',  ( 0.0000000000000000000, 0.0000000000000000000, -1.000000000000000000 ) ) ;
#169 = APPROVAL_ROLE ( '' ) ;
#170 = APPROVAL_PERSON_ORGANIZATION ( #94, #43, #18 ) ;
#171 = DIRECTION ( 'NONE',  ( 1.000000000000000000, 0.0000000000000000000, 0.0000000000000000000 ) ) ;
#172 = DIRECTION ( 'NONE',  ( 1.000000000000000000, 0.0000000000000000000, 0.0000000000000000000 ) ) ;
#173 = PRODUCT ( 'Web Model 46458_46458', 'Web Model 46458_46458', '', ( #21 ) ) ;
#174 = DESIGN_CONTEXT ( 'detailed design', #152, 'design' ) ;
#175 = DATE_AND_TIME ( #33, #28 ) ;
ENDSEC;
END-ISO-10303-21;
