ISO-10303-21;
HEADER;
FILE_DESCRIPTION (( 'STEP AP203' ),
    '1' );
FILE_NAME ('TTN041006-E0W.STEP',
    '2019-07-16T13:05:06',
    ( '' ),
    ( '' ),
    'SwSTEP 2.0',
    'SolidWorks 2018',
    '' );
FILE_SCHEMA (( 'CONFIG_CONTROL_DESIGN' ));
ENDSEC;

DATA;
#1 = DIRECTION ( 'NONE',  ( -0.0000000000000000000, -1.000000000000000000, -0.0000000000000000000 ) ) ;
#2 = PERSON_AND_ORGANIZATION ( #7, #100 ) ;
#3 = EDGE_CURVE ( 'NONE', #242, #49, #127, .T. ) ;
#4 = APPROVAL_ROLE ( '' ) ;
#5 = ORIENTED_EDGE ( 'NONE', *, *, #170, .T. ) ;
#6 = APPROVAL_PERSON_ORGANIZATION ( #118, #84, #46 ) ;
#7 = PERSON ( 'UNSPECIFIED', 'UNSPECIFIED', 'UNSPECIFIED', ('UNSPECIFIED'), ('UNSPECIFIED'), ('UNSPECIFIED') ) ;
#8 = ORIENTED_EDGE ( 'NONE', *, *, #122, .T. ) ;
#9 = CIRCLE ( 'NONE', #134, 49.50000000000000000 ) ;
#10 = AXIS2_PLACEMENT_3D ( 'NONE', #186, #113, #129 ) ;
#11 = CARTESIAN_POINT ( 'NONE',  ( 0.0000000000000000000, 0.0000000000000000000, 0.0000000000000000000 ) ) ;
#12 = DIRECTION ( 'NONE',  ( 0.0000000000000000000, 0.0000000000000000000, 1.000000000000000000 ) ) ;
#13 = ORIENTED_EDGE ( 'NONE', *, *, #85, .F. ) ;
#14 = CYLINDRICAL_SURFACE ( 'NONE', #10, 38.10000000000000142 ) ;
#15 = CARTESIAN_POINT ( 'NONE',  ( 0.0000000000000000000, 23.29368802827985974, -3.031000827889699256E-15 ) ) ;
#16 = DIRECTION ( 'NONE',  ( 0.0000000000000000000, 1.000000000000000000, 0.0000000000000000000 ) ) ;
#17 = CARTESIAN_POINT ( 'NONE',  ( 4.665904304751415298E-15, 5.394953825712724971, 38.09999999999999432 ) ) ;
#18 = COORDINATED_UNIVERSAL_TIME_OFFSET ( 5, 0, .BEHIND. ) ;
#19 = CARTESIAN_POINT ( 'NONE',  ( 0.0000000000000000000, 0.0000000000000000000, 0.0000000000000000000 ) ) ;
#20 = AXIS2_PLACEMENT_3D ( 'NONE', #11, #35, #110 ) ;
#21 = VERTEX_POINT ( 'NONE', #147 ) ;
#22 = PRODUCT_DEFINITION ( 'UNKNOWN', '', #117, #187 ) ;
#23 = FACE_OUTER_BOUND ( 'NONE', #67, .T. ) ;
#24 = ADVANCED_FACE ( 'NONE', ( #23 ), #95, .T. ) ;
#25 = VECTOR ( 'NONE', #171, 1000.000000000000000 ) ;
#26 = CC_DESIGN_APPROVAL ( #188, ( #22 ) ) ;
#27 = EDGE_CURVE ( 'NONE', #21, #247, #185, .T. ) ;
#28 = ORIENTED_EDGE ( 'NONE', *, *, #3, .T. ) ;
#29 = PERSON_AND_ORGANIZATION ( #7, #100 ) ;
#30 = ORIENTED_EDGE ( 'NONE', *, *, #51, .T. ) ;
#31 = PRODUCT ( 'TTN041006-E0W', 'TTN041006-E0W', '', ( #43 ) ) ;
#32 = VERTEX_POINT ( 'NONE', #94 ) ;
#33 = DATE_AND_TIME ( #79, #196 ) ;
#34 = DIRECTION ( 'NONE',  ( 1.000000000000000000, 0.0000000000000000000, 0.0000000000000000000 ) ) ;
#35 = DIRECTION ( 'NONE',  ( -0.0000000000000000000, -1.000000000000000000, -0.0000000000000000000 ) ) ;
#36 = MANIFOLD_SOLID_BREP ( 'TTN035609-1-solid1', #130 ) ;
#37 = FACE_OUTER_BOUND ( 'NONE', #92, .T. ) ;
#38 = DIRECTION ( 'NONE',  ( 0.0000000000000000000, 0.0000000000000000000, -1.000000000000000000 ) ) ;
#39 = CARTESIAN_POINT ( 'NONE',  ( 0.0000000000000000000, 0.0000000000000000000, 0.0000000000000000000 ) ) ;
#40 = AXIS2_PLACEMENT_3D ( 'NONE', #191, #99, #212 ) ;
#41 = CARTESIAN_POINT ( 'NONE',  ( 0.0000000000000000000, 0.0000000000000000000, 0.0000000000000000000 ) ) ;
#42 = LOCAL_TIME ( 9, 5, 6.000000000000000000, #18 ) ;
#43 = MECHANICAL_CONTEXT ( 'NONE', #75, 'mechanical' ) ;
#44 = CIRCLE ( 'NONE', #168, 49.50000000000000000 ) ;
#45 = APPROVAL_STATUS ( 'not_yet_approved' ) ;
#46 = APPROVAL_ROLE ( '' ) ;
#47 = ADVANCED_FACE ( 'NONE', ( #209 ), #14, .T. ) ;
#48 = AXIS2_PLACEMENT_3D ( 'NONE', #151, #137, #54 ) ;
#49 = VERTEX_POINT ( 'NONE', #93 ) ;
#50 = DATE_AND_TIME ( #105, #42 ) ;
#51 = EDGE_CURVE ( 'NONE', #178, #21, #9, .T. ) ;
#52 = SPHERICAL_SURFACE ( 'NONE', #161, 49.50000000000000000 ) ;
#53 = CARTESIAN_POINT ( 'NONE',  ( 4.665904304751416087E-15, 0.0000000000000000000, 38.10000000000000142 ) ) ;
#54 = DIRECTION ( 'NONE',  ( 0.0000000000000000000, 0.0000000000000000000, -1.000000000000000000 ) ) ;
#55 = CC_DESIGN_PERSON_AND_ORGANIZATION_ASSIGNMENT ( #163, #140, ( #117 ) ) ;
#56 = DIRECTION ( 'NONE',  ( 0.0000000000000000000, 0.0000000000000000000, -1.000000000000000000 ) ) ;
#57 = AXIS2_PLACEMENT_3D ( 'NONE', #58, #197, #192 ) ;
#58 = CARTESIAN_POINT ( 'NONE',  ( 0.0000000000000000000, 0.0000000000000000000, 0.0000000000000000000 ) ) ;
#59 = DATE_TIME_ROLE ( 'creation_date' ) ;
#60 = ADVANCED_FACE ( 'NONE', ( #144 ), #236, .T. ) ;
#61 = APPROVAL_PERSON_ORGANIZATION ( #231, #188, #4 ) ;
#62 = ORIENTED_EDGE ( 'NONE', *, *, #157, .T. ) ;
#63 = ADVANCED_FACE ( 'NONE', ( #226 ), #52, .T. ) ;
#64 = DIRECTION ( 'NONE',  ( 1.000000000000000000, 0.0000000000000000000, 0.0000000000000000000 ) ) ;
#65 = CC_DESIGN_PERSON_AND_ORGANIZATION_ASSIGNMENT ( #2, #220, ( #22 ) ) ;
#66 = AXIS2_PLACEMENT_3D ( 'NONE', #164, #34, #208 ) ;
#67 = EDGE_LOOP ( 'NONE', ( #155, #30, #238 ) ) ;
#68 = CC_DESIGN_APPROVAL ( #102, ( #117 ) ) ;
#69 = SECURITY_CLASSIFICATION ( '', '', #243 ) ;
#70 = DATE_AND_TIME ( #145, #249 ) ;
#71 = EDGE_CURVE ( 'NONE', #247, #21, #165, .T. ) ;
#72 = DIRECTION ( 'NONE',  ( 0.0000000000000000000, 0.0000000000000000000, -1.000000000000000000 ) ) ;
#73 = ORIENTED_EDGE ( 'NONE', *, *, #122, .F. ) ;
#74 = CARTESIAN_POINT ( 'NONE',  ( 0.0000000000000000000, -26.20631197172014026, 0.0000000000000000000 ) ) ;
#75 = APPLICATION_CONTEXT ( 'configuration controlled 3d designs of mechanical parts and assemblies' ) ;
#76 = CARTESIAN_POINT ( 'NONE',  ( 0.0000000000000000000, -26.20631197172014026, 0.0000000000000000000 ) ) ;
#77 =( LENGTH_UNIT ( ) NAMED_UNIT ( * ) SI_UNIT ( .MILLI., .METRE. ) );
#78 = ORIENTED_EDGE ( 'NONE', *, *, #199, .F. ) ;
#79 = CALENDAR_DATE ( 2019, 16, 7 ) ;
#80 = ORIENTED_EDGE ( 'NONE', *, *, #27, .T. ) ;
#81 = APPROVAL_STATUS ( 'not_yet_approved' ) ;
#82 = APPLICATION_PROTOCOL_DEFINITION ( 'international standard', 'config_control_design', 1994, #120 ) ;
#83 = SHAPE_DEFINITION_REPRESENTATION ( #240, #158 ) ;
#84 = APPROVAL ( #81, 'UNSPECIFIED' ) ;
#85 = EDGE_CURVE ( 'NONE', #87, #32, #104, .T. ) ;
#86 = EDGE_CURVE ( 'NONE', #242, #87, #225, .T. ) ;
#87 = VERTEX_POINT ( 'NONE', #213 ) ;
#88 = ORIENTED_EDGE ( 'NONE', *, *, #228, .T. ) ;
#89 = DIRECTION ( 'NONE',  ( 1.000000000000000000, 0.0000000000000000000, 0.0000000000000000000 ) ) ;
#90 = EDGE_LOOP ( 'NONE', ( #80, #5, #190, #202 ) ) ;
#91 = DIRECTION ( 'NONE',  ( 0.0000000000000000000, 1.000000000000000000, 0.0000000000000000000 ) ) ;
#92 = EDGE_LOOP ( 'NONE', ( #218, #182, #88, #62 ) ) ;
#93 = CARTESIAN_POINT ( 'NONE',  ( 4.650596219762072615E-15, 0.0000000000000000000, -37.84999999999998010 ) ) ;
#94 = CARTESIAN_POINT ( 'NONE',  ( 0.0000000000000000000, 0.2500000000000071609, -38.10000000000000142 ) ) ;
#95 = SPHERICAL_SURFACE ( 'NONE', #66, 49.50000000000000000 ) ;
#96 = DIRECTION ( 'NONE',  ( -0.0000000000000000000, -1.000000000000000000, -0.0000000000000000000 ) ) ;
#97 = CARTESIAN_POINT ( 'NONE',  ( 4.635288134772729144E-15, 0.0000000000000000000, -37.84999999999998010 ) ) ;
#98 = DIRECTION ( 'NONE',  ( 8.659560562355173214E-17, 0.7071067811865279218, -0.7071067811865671127 ) ) ;
#99 = DIRECTION ( 'NONE',  ( -0.0000000000000000000, -1.000000000000000000, -0.0000000000000000000 ) ) ;
#100 = ORGANIZATION ( 'UNSPECIFIED', 'UNSPECIFIED', '' ) ;
#101 = DATE_TIME_ROLE ( 'classification_date' ) ;
#102 = APPROVAL ( #45, 'UNSPECIFIED' ) ;
#103 = PERSON_AND_ORGANIZATION ( #7, #100 ) ;
#104 = CIRCLE ( 'NONE', #223, 38.10000000000000142 ) ;
#105 = CALENDAR_DATE ( 2019, 16, 7 ) ;
#106 = CC_DESIGN_PERSON_AND_ORGANIZATION_ASSIGNMENT ( #154, #217, ( #31 ) ) ;
#107 = EDGE_LOOP ( 'NONE', ( #73, #230, #13, #204 ) ) ;
#108 = APPROVAL_DATE_TIME ( #50, #84 ) ;
#109 = CC_DESIGN_PERSON_AND_ORGANIZATION_ASSIGNMENT ( #203, #121, ( #69 ) ) ;
#110 = DIRECTION ( 'NONE',  ( 0.0000000000000000000, 0.0000000000000000000, -1.000000000000000000 ) ) ;
#111 = APPROVAL_PERSON_ORGANIZATION ( #29, #102, #139 ) ;
#112 = DIRECTION ( 'NONE',  ( 0.0000000000000000000, 0.0000000000000000000, 1.000000000000000000 ) ) ;
#113 = DIRECTION ( 'NONE',  ( -0.0000000000000000000, -1.000000000000000000, -0.0000000000000000000 ) ) ;
#114 = ORIENTED_EDGE ( 'NONE', *, *, #27, .F. ) ;
#115 = CARTESIAN_POINT ( 'NONE',  ( 0.0000000000000000000, 5.394953825712724971, 0.0000000000000000000 ) ) ;
#116 = DIRECTION ( 'NONE',  ( 0.0000000000000000000, 0.0000000000000000000, 1.000000000000000000 ) ) ;
#117 = PRODUCT_DEFINITION_FORMATION_WITH_SPECIFIED_SOURCE ( 'ANY', '', #31, .NOT_KNOWN. ) ;
#118 = PERSON_AND_ORGANIZATION ( #7, #100 ) ;
#119 = FACE_OUTER_BOUND ( 'NONE', #148, .T. ) ;
#120 = APPLICATION_CONTEXT ( 'configuration controlled 3d designs of mechanical parts and assemblies' ) ;
#121 = PERSON_AND_ORGANIZATION_ROLE ( 'classification_officer' ) ;
#122 = EDGE_CURVE ( 'NONE', #49, #242, #149, .T. ) ;
#123 = CALENDAR_DATE ( 2019, 16, 7 ) ;
#124 = AXIS2_PLACEMENT_3D ( 'NONE', #39, #250, #237 ) ;
#125 = ORIENTED_EDGE ( 'NONE', *, *, #180, .T. ) ;
#126 = CALENDAR_DATE ( 2019, 16, 7 ) ;
#127 = CIRCLE ( 'NONE', #20, 37.84999999999998010 ) ;
#128 = VECTOR ( 'NONE', #98, 1000.000000000000000 ) ;
#129 = DIRECTION ( 'NONE',  ( 0.0000000000000000000, 0.0000000000000000000, -1.000000000000000000 ) ) ;
#130 = CLOSED_SHELL ( 'NONE', ( #221, #47, #63, #24, #198, #142, #60 ) ) ;
#131 = COORDINATED_UNIVERSAL_TIME_OFFSET ( 5, 0, .BEHIND. ) ;
#132 = AXIS2_PLACEMENT_3D ( 'NONE', #19, #234, #152 ) ;
#133 = CARTESIAN_POINT ( 'NONE',  ( 0.0000000000000000000, 0.0000000000000000000, 37.84999999999998010 ) ) ;
#134 = AXIS2_PLACEMENT_3D ( 'NONE', #206, #227, #12 ) ;
#135 = LINE ( 'NONE', #195, #146 ) ;
#136 = CARTESIAN_POINT ( 'NONE',  ( 0.0000000000000000000, 0.2500000000000071609, 0.0000000000000000000 ) ) ;
#137 = DIRECTION ( 'NONE',  ( 0.0000000000000000000, 1.000000000000000000, 0.0000000000000000000 ) ) ;
#138 = FACE_OUTER_BOUND ( 'NONE', #107, .T. ) ;
#139 = APPROVAL_ROLE ( '' ) ;
#140 = PERSON_AND_ORGANIZATION_ROLE ( 'creator' ) ;
#141 = CIRCLE ( 'NONE', #48, 38.10000000000000142 ) ;
#142 = ADVANCED_FACE ( 'NONE', ( #119 ), #172, .T. ) ;
#143 = COORDINATED_UNIVERSAL_TIME_OFFSET ( 5, 0, .BEHIND. ) ;
#144 = FACE_OUTER_BOUND ( 'NONE', #219, .T. ) ;
#145 = CALENDAR_DATE ( 2019, 16, 7 ) ;
#146 = VECTOR ( 'NONE', #1, 1000.000000000000000 ) ;
#147 = CARTESIAN_POINT ( 'NONE',  ( 0.0000000000000000000, 5.394953825712724971, -38.09999999999999432 ) ) ;
#148 = EDGE_LOOP ( 'NONE', ( #28, #8 ) ) ;
#149 = CIRCLE ( 'NONE', #124, 37.84999999999998010 ) ;
#150 =( NAMED_UNIT ( * ) PLANE_ANGLE_UNIT ( ) SI_UNIT ( $, .RADIAN. ) );
#151 = CARTESIAN_POINT ( 'NONE',  ( 0.0000000000000000000, 0.2500000000000071609, 0.0000000000000000000 ) ) ;
#152 = DIRECTION ( 'NONE',  ( 0.0000000000000000000, 0.0000000000000000000, 1.000000000000000000 ) ) ;
#153 = LOCAL_TIME ( 9, 5, 6.000000000000000000, #143 ) ;
#154 = PERSON_AND_ORGANIZATION ( #7, #100 ) ;
#155 = ORIENTED_EDGE ( 'NONE', *, *, #180, .F. ) ;
#156 = PERSON_AND_ORGANIZATION_ROLE ( 'design_supplier' ) ;
#157 = EDGE_CURVE ( 'NONE', #32, #87, #141, .T. ) ;
#158 = ADVANCED_BREP_SHAPE_REPRESENTATION ( 'TTN041006-E0W', ( #36, #175 ), #173 ) ;
#159 = CC_DESIGN_DATE_AND_TIME_ASSIGNMENT ( #224, #59, ( #22 ) ) ;
#160 = ORIENTED_EDGE ( 'NONE', *, *, #3, .F. ) ;
#161 = AXIS2_PLACEMENT_3D ( 'NONE', #74, #89, #72 ) ;
#162 = EDGE_LOOP ( 'NONE', ( #245, #125, #114 ) ) ;
#163 = PERSON_AND_ORGANIZATION ( #7, #100 ) ;
#164 = CARTESIAN_POINT ( 'NONE',  ( 0.0000000000000000000, -26.20631197172014026, 0.0000000000000000000 ) ) ;
#165 = CIRCLE ( 'NONE', #194, 38.10000000000000142 ) ;
#166 = DIRECTION ( 'NONE',  ( 0.0000000000000000000, 0.0000000000000000000, -1.000000000000000000 ) ) ;
#167 = DIRECTION ( 'NONE',  ( 1.000000000000000000, 0.0000000000000000000, -1.224646799147353207E-16 ) ) ;
#168 = AXIS2_PLACEMENT_3D ( 'NONE', #76, #167, #210 ) ;
#169 = APPROVAL_DATE_TIME ( #33, #188 ) ;
#170 = EDGE_CURVE ( 'NONE', #247, #87, #244, .T. ) ;
#171 = DIRECTION ( 'NONE',  ( -0.0000000000000000000, -1.000000000000000000, -0.0000000000000000000 ) ) ;
#172 = PLANE ( 'NONE',  #57 ) ;
#173 =( GEOMETRIC_REPRESENTATION_CONTEXT ( 3 ) GLOBAL_UNCERTAINTY_ASSIGNED_CONTEXT ( ( #193 ) ) GLOBAL_UNIT_ASSIGNED_CONTEXT ( ( #77, #150, #215 ) ) REPRESENTATION_CONTEXT ( 'NONE', 'WORKASPACE' ) );
#174 = ORIENTED_EDGE ( 'NONE', *, *, #157, .F. ) ;
#175 = AXIS2_PLACEMENT_3D ( 'NONE', #41, #116, #64 ) ;
#176 = APPROVAL_STATUS ( 'not_yet_approved' ) ;
#177 = LINE ( 'NONE', #97, #128 ) ;
#178 = VERTEX_POINT ( 'NONE', #15 ) ;
#179 = CYLINDRICAL_SURFACE ( 'NONE', #40, 38.10000000000000142 ) ;
#180 = EDGE_CURVE ( 'NONE', #178, #247, #44, .T. ) ;
#181 = CARTESIAN_POINT ( 'NONE',  ( 0.0000000000000000000, 0.0000000000000000000, 0.0000000000000000000 ) ) ;
#182 = ORIENTED_EDGE ( 'NONE', *, *, #71, .T. ) ;
#183 = DIRECTION ( 'NONE',  ( -0.0000000000000000000, -1.000000000000000000, -0.0000000000000000000 ) ) ;
#184 = DATE_AND_TIME ( #123, #153 ) ;
#185 = CIRCLE ( 'NONE', #216, 38.10000000000000142 ) ;
#186 = CARTESIAN_POINT ( 'NONE',  ( 0.0000000000000000000, 0.0000000000000000000, 0.0000000000000000000 ) ) ;
#187 = DESIGN_CONTEXT ( 'detailed design', #120, 'design' ) ;
#188 = APPROVAL ( #176, 'UNSPECIFIED' ) ;
#189 = DIRECTION ( 'NONE',  ( 0.0000000000000000000, 0.7071067811865279218, 0.7071067811865671127 ) ) ;
#190 = ORIENTED_EDGE ( 'NONE', *, *, #85, .T. ) ;
#191 = CARTESIAN_POINT ( 'NONE',  ( 0.0000000000000000000, 0.0000000000000000000, 0.0000000000000000000 ) ) ;
#192 = DIRECTION ( 'NONE',  ( 0.0000000000000000000, 0.0000000000000000000, -1.000000000000000000 ) ) ;
#193 = UNCERTAINTY_MEASURE_WITH_UNIT (LENGTH_MEASURE( 1.000000000000000082E-05 ), #77, 'distance_accuracy_value', 'NONE');
#194 = AXIS2_PLACEMENT_3D ( 'NONE', #115, #96, #38 ) ;
#195 = CARTESIAN_POINT ( 'NONE',  ( 0.0000000000000000000, 0.0000000000000000000, -38.10000000000000142 ) ) ;
#196 = LOCAL_TIME ( 9, 5, 6.000000000000000000, #131 ) ;
#197 = DIRECTION ( 'NONE',  ( 0.0000000000000000000, -1.000000000000000000, -0.0000000000000000000 ) ) ;
#198 = ADVANCED_FACE ( 'NONE', ( #37 ), #179, .T. ) ;
#199 = EDGE_CURVE ( 'NONE', #49, #32, #177, .T. ) ;
#200 = APPROVAL_DATE_TIME ( #184, #102 ) ;
#201 = CONICAL_SURFACE ( 'NONE', #132, 37.84999999999998010, 0.7853981633974760346 ) ;
#202 = ORIENTED_EDGE ( 'NONE', *, *, #228, .F. ) ;
#203 = PERSON_AND_ORGANIZATION ( #7, #100 ) ;
#204 = ORIENTED_EDGE ( 'NONE', *, *, #86, .F. ) ;
#205 = COORDINATED_UNIVERSAL_TIME_OFFSET ( 5, 0, .BEHIND. ) ;
#206 = CARTESIAN_POINT ( 'NONE',  ( 0.0000000000000000000, -26.20631197172014026, 0.0000000000000000000 ) ) ;
#207 = PRODUCT_RELATED_PRODUCT_CATEGORY ( 'detail', '', ( #31 ) ) ;
#208 = DIRECTION ( 'NONE',  ( 0.0000000000000000000, 0.0000000000000000000, -1.000000000000000000 ) ) ;
#209 = FACE_OUTER_BOUND ( 'NONE', #90, .T. ) ;
#210 = DIRECTION ( 'NONE',  ( -1.224646799147353207E-16, 0.0000000000000000000, -1.000000000000000000 ) ) ;
#211 = APPLICATION_PROTOCOL_DEFINITION ( 'international standard', 'config_control_design', 1994, #75 ) ;
#212 = DIRECTION ( 'NONE',  ( 0.0000000000000000000, 0.0000000000000000000, -1.000000000000000000 ) ) ;
#213 = CARTESIAN_POINT ( 'NONE',  ( 4.665904304751416087E-15, 0.2500000000000071609, 38.10000000000000142 ) ) ;
#214 = CC_DESIGN_SECURITY_CLASSIFICATION ( #69, ( #117 ) ) ;
#215 =( NAMED_UNIT ( * ) SI_UNIT ( $, .STERADIAN. ) SOLID_ANGLE_UNIT ( ) );
#216 = AXIS2_PLACEMENT_3D ( 'NONE', #229, #183, #166 ) ;
#217 = PERSON_AND_ORGANIZATION_ROLE ( 'design_owner' ) ;
#218 = ORIENTED_EDGE ( 'NONE', *, *, #170, .F. ) ;
#219 = EDGE_LOOP ( 'NONE', ( #78, #160, #232, #174 ) ) ;
#220 = PERSON_AND_ORGANIZATION_ROLE ( 'creator' ) ;
#221 = ADVANCED_FACE ( 'NONE', ( #138 ), #201, .T. ) ;
#222 = COORDINATED_UNIVERSAL_TIME_OFFSET ( 5, 0, .BEHIND. ) ;
#223 = AXIS2_PLACEMENT_3D ( 'NONE', #136, #16, #56 ) ;
#224 = DATE_AND_TIME ( #126, #239 ) ;
#225 = LINE ( 'NONE', #133, #251 ) ;
#226 = FACE_OUTER_BOUND ( 'NONE', #162, .T. ) ;
#227 = DIRECTION ( 'NONE',  ( -1.000000000000000000, 0.0000000000000000000, 0.0000000000000000000 ) ) ;
#228 = EDGE_CURVE ( 'NONE', #21, #32, #135, .T. ) ;
#229 = CARTESIAN_POINT ( 'NONE',  ( 0.0000000000000000000, 5.394953825712724971, 0.0000000000000000000 ) ) ;
#230 = ORIENTED_EDGE ( 'NONE', *, *, #199, .T. ) ;
#231 = PERSON_AND_ORGANIZATION ( #7, #100 ) ;
#232 = ORIENTED_EDGE ( 'NONE', *, *, #86, .T. ) ;
#233 = CC_DESIGN_PERSON_AND_ORGANIZATION_ASSIGNMENT ( #103, #156, ( #117 ) ) ;
#234 = DIRECTION ( 'NONE',  ( 0.0000000000000000000, 1.000000000000000000, 0.0000000000000000000 ) ) ;
#235 = CARTESIAN_POINT ( 'NONE',  ( 0.0000000000000000000, 0.0000000000000000000, 37.84999999999998010 ) ) ;
#236 = CONICAL_SURFACE ( 'NONE', #246, 37.84999999999998010, 0.7853981633974760346 ) ;
#237 = DIRECTION ( 'NONE',  ( 0.0000000000000000000, 0.0000000000000000000, -1.000000000000000000 ) ) ;
#238 = ORIENTED_EDGE ( 'NONE', *, *, #71, .F. ) ;
#239 = LOCAL_TIME ( 9, 5, 6.000000000000000000, #222 ) ;
#240 = PRODUCT_DEFINITION_SHAPE ( 'NONE', 'NONE',  #22 ) ;
#241 = CC_DESIGN_APPROVAL ( #84, ( #69 ) ) ;
#242 = VERTEX_POINT ( 'NONE', #235 ) ;
#243 = SECURITY_CLASSIFICATION_LEVEL ( 'unclassified' ) ;
#244 = LINE ( 'NONE', #53, #25 ) ;
#245 = ORIENTED_EDGE ( 'NONE', *, *, #51, .F. ) ;
#246 = AXIS2_PLACEMENT_3D ( 'NONE', #181, #91, #112 ) ;
#247 = VERTEX_POINT ( 'NONE', #17 ) ;
#248 = CC_DESIGN_DATE_AND_TIME_ASSIGNMENT ( #70, #101, ( #69 ) ) ;
#249 = LOCAL_TIME ( 9, 5, 6.000000000000000000, #205 ) ;
#250 = DIRECTION ( 'NONE',  ( -0.0000000000000000000, -1.000000000000000000, -0.0000000000000000000 ) ) ;
#251 = VECTOR ( 'NONE', #189, 1000.000000000000000 ) ;
ENDSEC;
END-ISO-10303-21;
