ISO-10303-21;
HEADER;
FILE_DESCRIPTION (( 'STEP AP203' ),
    '1' );
FILE_NAME ('Web Model 11875_14822.step',
    '2020-10-07T17:18:52',
    ( '' ),
    ( '' ),
    'SwSTEP 2.0',
    'SolidWorks 2018',
    '' );
FILE_SCHEMA (( 'CONFIG_CONTROL_DESIGN' ));
ENDSEC;

DATA;
#1 = PERSON_AND_ORGANIZATION ( #123, #175 ) ;
#2 = CC_DESIGN_DATE_AND_TIME_ASSIGNMENT ( #13, #111, ( #93 ) ) ;
#3 = COORDINATED_UNIVERSAL_TIME_OFFSET ( 5, 0, .BEHIND. ) ;
#4 = ADVANCED_FACE ( 'NONE', ( #117 ), #68, .T. ) ;
#5 = SECURITY_CLASSIFICATION ( '', '', #69 ) ;
#6 = ORIENTED_EDGE ( 'NONE', *, *, #71, .T. ) ;
#7 = DIRECTION ( 'NONE',  ( 0.0000000000000000000, 0.0000000000000000000, 1.000000000000000000 ) ) ;
#8 = CARTESIAN_POINT ( 'NONE',  ( -25.39999999999999858, 0.0000000000000000000, 1.500000000000000000 ) ) ;
#9 = APPLICATION_CONTEXT ( 'configuration controlled 3d designs of mechanical parts and assemblies' ) ;
#10 = PERSON_AND_ORGANIZATION_ROLE ( 'design_supplier' ) ;
#11 = PRODUCT_DEFINITION_FORMATION_WITH_SPECIFIED_SOURCE ( 'ANY', '', #79, .NOT_KNOWN. ) ;
#12 = VERTEX_POINT ( 'NONE', #8 ) ;
#13 = DATE_AND_TIME ( #51, #92 ) ;
#14 = DIRECTION ( 'NONE',  ( 0.0000000000000000000, 0.0000000000000000000, 1.000000000000000000 ) ) ;
#15 = ADVANCED_BREP_SHAPE_REPRESENTATION ( 'Web Model 11875_14822', ( #70, #76 ), #19 ) ;
#16 = ORIENTED_EDGE ( 'NONE', *, *, #30, .T. ) ;
#17 = CC_DESIGN_DATE_AND_TIME_ASSIGNMENT ( #144, #136, ( #5 ) ) ;
#18 = CIRCLE ( 'NONE', #99, 25.39999999999999858 ) ;
#19 =( GEOMETRIC_REPRESENTATION_CONTEXT ( 3 ) GLOBAL_UNCERTAINTY_ASSIGNED_CONTEXT ( ( #87 ) ) GLOBAL_UNIT_ASSIGNED_CONTEXT ( ( #169, #22, #148 ) ) REPRESENTATION_CONTEXT ( 'NONE', 'WORKASPACE' ) );
#20 = EDGE_LOOP ( 'NONE', ( #57, #88, #6, #138 ) ) ;
#21 = APPLICATION_PROTOCOL_DEFINITION ( 'international standard', 'config_control_design', 1994, #96 ) ;
#22 =( NAMED_UNIT ( * ) PLANE_ANGLE_UNIT ( ) SI_UNIT ( $, .RADIAN. ) );
#23 = DIRECTION ( 'NONE',  ( -0.0000000000000000000, -0.0000000000000000000, -1.000000000000000000 ) ) ;
#24 = PERSON_AND_ORGANIZATION_ROLE ( 'classification_officer' ) ;
#25 = AXIS2_PLACEMENT_3D ( 'NONE', #116, #14, #26 ) ;
#26 = DIRECTION ( 'NONE',  ( 1.000000000000000000, 0.0000000000000000000, -0.0000000000000000000 ) ) ;
#27 = APPROVAL_STATUS ( 'not_yet_approved' ) ;
#28 = CARTESIAN_POINT ( 'NONE',  ( 0.0000000000000000000, 0.0000000000000000000, -1.500000000000000000 ) ) ;
#29 = DIRECTION ( 'NONE',  ( -0.0000000000000000000, -0.0000000000000000000, -1.000000000000000000 ) ) ;
#30 = EDGE_CURVE ( 'NONE', #66, #12, #36, .T. ) ;
#31 = ORIENTED_EDGE ( 'NONE', *, *, #61, .F. ) ;
#32 = COORDINATED_UNIVERSAL_TIME_OFFSET ( 5, 0, .BEHIND. ) ;
#33 = CALENDAR_DATE ( 2020, 7, 10 ) ;
#34 = AXIS2_PLACEMENT_3D ( 'NONE', #42, #132, #137 ) ;
#35 = CC_DESIGN_PERSON_AND_ORGANIZATION_ASSIGNMENT ( #44, #85, ( #11 ) ) ;
#36 = CIRCLE ( 'NONE', #131, 25.39999999999999858 ) ;
#37 = FACE_OUTER_BOUND ( 'NONE', #125, .T. ) ;
#38 = APPROVAL_STATUS ( 'not_yet_approved' ) ;
#39 = DIRECTION ( 'NONE',  ( 0.0000000000000000000, 0.0000000000000000000, 1.000000000000000000 ) ) ;
#40 = CALENDAR_DATE ( 2020, 7, 10 ) ;
#41 = APPROVAL ( #152, 'UNSPECIFIED' ) ;
#42 = CARTESIAN_POINT ( 'NONE',  ( 0.0000000000000000000, 0.0000000000000000000, -1.500000000000000000 ) ) ;
#43 = ORIENTED_EDGE ( 'NONE', *, *, #71, .F. ) ;
#44 = PERSON_AND_ORGANIZATION ( #123, #175 ) ;
#45 = AXIS2_PLACEMENT_3D ( 'NONE', #118, #29, #72 ) ;
#46 = CARTESIAN_POINT ( 'NONE',  ( -25.39999999999999858, 0.0000000000000000000, -1.500000000000000000 ) ) ;
#47 = APPROVAL ( #27, 'UNSPECIFIED' ) ;
#48 = ORIENTED_EDGE ( 'NONE', *, *, #61, .T. ) ;
#49 = APPROVAL_PERSON_ORGANIZATION ( #156, #41, #172 ) ;
#50 = EDGE_CURVE ( 'NONE', #91, #122, #142, .T. ) ;
#51 = CALENDAR_DATE ( 2020, 7, 10 ) ;
#52 = PERSON_AND_ORGANIZATION_ROLE ( 'creator' ) ;
#53 = DIRECTION ( 'NONE',  ( -0.0000000000000000000, -0.0000000000000000000, -1.000000000000000000 ) ) ;
#54 = CARTESIAN_POINT ( 'NONE',  ( 0.0000000000000000000, 0.0000000000000000000, 1.500000000000000000 ) ) ;
#55 = AXIS2_PLACEMENT_3D ( 'NONE', #28, #89, #100 ) ;
#56 = LINE ( 'NONE', #113, #63 ) ;
#57 = ORIENTED_EDGE ( 'NONE', *, *, #81, .F. ) ;
#58 = APPROVAL_DATE_TIME ( #134, #121 ) ;
#59 = CARTESIAN_POINT ( 'NONE',  ( 0.0000000000000000000, 0.0000000000000000000, 1.500000000000000000 ) ) ;
#60 = CLOSED_SHELL ( 'NONE', ( #166, #62, #4, #64 ) ) ;
#61 = EDGE_CURVE ( 'NONE', #122, #91, #174, .T. ) ;
#62 = ADVANCED_FACE ( 'NONE', ( #77 ), #65, .T. ) ;
#63 = VECTOR ( 'NONE', #67, 1000.000000000000000 ) ;
#64 = ADVANCED_FACE ( 'NONE', ( #73 ), #164, .F. ) ;
#65 = CYLINDRICAL_SURFACE ( 'NONE', #45, 25.39999999999999858 ) ;
#66 = VERTEX_POINT ( 'NONE', #153 ) ;
#67 = DIRECTION ( 'NONE',  ( -0.0000000000000000000, -0.0000000000000000000, -1.000000000000000000 ) ) ;
#68 = PLANE ( 'NONE',  #162 ) ;
#69 = SECURITY_CLASSIFICATION_LEVEL ( 'unclassified' ) ;
#70 = MANIFOLD_SOLID_BREP ( 'Boss-Extrude1', #60 ) ;
#71 = EDGE_CURVE ( 'NONE', #12, #91, #56, .T. ) ;
#72 = DIRECTION ( 'NONE',  ( -1.000000000000000000, 0.0000000000000000000, 0.0000000000000000000 ) ) ;
#73 = FACE_OUTER_BOUND ( 'NONE', #163, .T. ) ;
#74 = APPROVAL_PERSON_ORGANIZATION ( #109, #121, #133 ) ;
#75 = DATE_AND_TIME ( #33, #154 ) ;
#76 = AXIS2_PLACEMENT_3D ( 'NONE', #98, #7, #126 ) ;
#77 = FACE_OUTER_BOUND ( 'NONE', #20, .T. ) ;
#78 = CALENDAR_DATE ( 2020, 7, 10 ) ;
#79 = PRODUCT ( 'Web Model 11875_14822', 'Web Model 11875_14822', '', ( #110 ) ) ;
#80 = PERSON_AND_ORGANIZATION ( #123, #175 ) ;
#81 = EDGE_CURVE ( 'NONE', #66, #122, #147, .T. ) ;
#82 = ORIENTED_EDGE ( 'NONE', *, *, #81, .T. ) ;
#83 = APPLICATION_PROTOCOL_DEFINITION ( 'international standard', 'config_control_design', 1994, #9 ) ;
#84 = SHAPE_DEFINITION_REPRESENTATION ( #103, #15 ) ;
#85 = PERSON_AND_ORGANIZATION_ROLE ( 'creator' ) ;
#86 = CC_DESIGN_PERSON_AND_ORGANIZATION_ASSIGNMENT ( #119, #160, ( #79 ) ) ;
#87 = UNCERTAINTY_MEASURE_WITH_UNIT (LENGTH_MEASURE( 1.000000000000000082E-05 ), #169, 'distance_accuracy_value', 'NONE');
#88 = ORIENTED_EDGE ( 'NONE', *, *, #114, .F. ) ;
#89 = DIRECTION ( 'NONE',  ( 0.0000000000000000000, 0.0000000000000000000, 1.000000000000000000 ) ) ;
#90 = LOCAL_TIME ( 13, 18, 52.00000000000000000, #139 ) ;
#91 = VERTEX_POINT ( 'NONE', #46 ) ;
#92 = LOCAL_TIME ( 13, 18, 52.00000000000000000, #32 ) ;
#93 = PRODUCT_DEFINITION ( 'UNKNOWN', '', #11, #167 ) ;
#94 = CALENDAR_DATE ( 2020, 7, 10 ) ;
#95 = DIRECTION ( 'NONE',  ( 0.0000000000000000000, 0.0000000000000000000, 1.000000000000000000 ) ) ;
#96 = APPLICATION_CONTEXT ( 'configuration controlled 3d designs of mechanical parts and assemblies' ) ;
#97 = DIRECTION ( 'NONE',  ( 1.000000000000000000, 0.0000000000000000000, -0.0000000000000000000 ) ) ;
#98 = CARTESIAN_POINT ( 'NONE',  ( 0.0000000000000000000, 0.0000000000000000000, 0.0000000000000000000 ) ) ;
#99 = AXIS2_PLACEMENT_3D ( 'NONE', #59, #95, #107 ) ;
#100 = DIRECTION ( 'NONE',  ( 1.000000000000000000, 0.0000000000000000000, 0.0000000000000000000 ) ) ;
#101 = CYLINDRICAL_SURFACE ( 'NONE', #168, 25.39999999999999858 ) ;
#102 = CC_DESIGN_APPROVAL ( #121, ( #93 ) ) ;
#103 = PRODUCT_DEFINITION_SHAPE ( 'NONE', 'NONE',  #93 ) ;
#104 = EDGE_LOOP ( 'NONE', ( #155, #16 ) ) ;
#105 = APPROVAL_PERSON_ORGANIZATION ( #1, #47, #128 ) ;
#106 = PRODUCT_RELATED_PRODUCT_CATEGORY ( 'detail', '', ( #79 ) ) ;
#107 = DIRECTION ( 'NONE',  ( 1.000000000000000000, 0.0000000000000000000, 0.0000000000000000000 ) ) ;
#108 = DATE_AND_TIME ( #94, #130 ) ;
#109 = PERSON_AND_ORGANIZATION ( #123, #175 ) ;
#110 = MECHANICAL_CONTEXT ( 'NONE', #9, 'mechanical' ) ;
#111 = DATE_TIME_ROLE ( 'creation_date' ) ;
#112 = LOCAL_TIME ( 13, 18, 52.00000000000000000, #140 ) ;
#113 = CARTESIAN_POINT ( 'NONE',  ( -25.39999999999999858, 0.0000000000000000000, 1.500000000000000000 ) ) ;
#114 = EDGE_CURVE ( 'NONE', #12, #66, #18, .T. ) ;
#115 = DIRECTION ( 'NONE',  ( -1.000000000000000000, 0.0000000000000000000, 0.0000000000000000000 ) ) ;
#116 = CARTESIAN_POINT ( 'NONE',  ( 0.0000000000000000000, 0.0000000000000000000, -1.500000000000000000 ) ) ;
#117 = FACE_OUTER_BOUND ( 'NONE', #104, .T. ) ;
#118 = CARTESIAN_POINT ( 'NONE',  ( 0.0000000000000000000, 0.0000000000000000000, 1.500000000000000000 ) ) ;
#119 = PERSON_AND_ORGANIZATION ( #123, #175 ) ;
#120 = APPROVAL_DATE_TIME ( #108, #41 ) ;
#121 = APPROVAL ( #38, 'UNSPECIFIED' ) ;
#122 = VERTEX_POINT ( 'NONE', #151 ) ;
#123 = PERSON ( 'UNSPECIFIED', 'UNSPECIFIED', 'UNSPECIFIED', ('UNSPECIFIED'), ('UNSPECIFIED'), ('UNSPECIFIED') ) ;
#124 = COORDINATED_UNIVERSAL_TIME_OFFSET ( 5, 0, .BEHIND. ) ;
#125 = EDGE_LOOP ( 'NONE', ( #146, #82, #48, #43 ) ) ;
#126 = DIRECTION ( 'NONE',  ( 1.000000000000000000, 0.0000000000000000000, 0.0000000000000000000 ) ) ;
#127 = CARTESIAN_POINT ( 'NONE',  ( 0.0000000000000000000, 0.0000000000000000000, 1.500000000000000000 ) ) ;
#128 = APPROVAL_ROLE ( '' ) ;
#129 = CC_DESIGN_APPROVAL ( #41, ( #11 ) ) ;
#130 = LOCAL_TIME ( 13, 18, 52.00000000000000000, #124 ) ;
#131 = AXIS2_PLACEMENT_3D ( 'NONE', #127, #39, #135 ) ;
#132 = DIRECTION ( 'NONE',  ( 0.0000000000000000000, 0.0000000000000000000, 1.000000000000000000 ) ) ;
#133 = APPROVAL_ROLE ( '' ) ;
#134 = DATE_AND_TIME ( #78, #90 ) ;
#135 = DIRECTION ( 'NONE',  ( 1.000000000000000000, 0.0000000000000000000, 0.0000000000000000000 ) ) ;
#136 = DATE_TIME_ROLE ( 'classification_date' ) ;
#137 = DIRECTION ( 'NONE',  ( 1.000000000000000000, 0.0000000000000000000, 0.0000000000000000000 ) ) ;
#138 = ORIENTED_EDGE ( 'NONE', *, *, #50, .T. ) ;
#139 = COORDINATED_UNIVERSAL_TIME_OFFSET ( 5, 0, .BEHIND. ) ;
#140 = COORDINATED_UNIVERSAL_TIME_OFFSET ( 5, 0, .BEHIND. ) ;
#141 = CC_DESIGN_SECURITY_CLASSIFICATION ( #5, ( #11 ) ) ;
#142 = CIRCLE ( 'NONE', #34, 25.39999999999999858 ) ;
#143 = VECTOR ( 'NONE', #23, 1000.000000000000000 ) ;
#144 = DATE_AND_TIME ( #40, #112 ) ;
#145 = CC_DESIGN_PERSON_AND_ORGANIZATION_ASSIGNMENT ( #159, #52, ( #93 ) ) ;
#146 = ORIENTED_EDGE ( 'NONE', *, *, #30, .F. ) ;
#147 = LINE ( 'NONE', #161, #143 ) ;
#148 =( NAMED_UNIT ( * ) SI_UNIT ( $, .STERADIAN. ) SOLID_ANGLE_UNIT ( ) );
#149 = CARTESIAN_POINT ( 'NONE',  ( 0.0000000000000000000, 0.0000000000000000000, 1.500000000000000000 ) ) ;
#150 = PERSON_AND_ORGANIZATION ( #123, #175 ) ;
#151 = CARTESIAN_POINT ( 'NONE',  ( 25.39999999999999858, 3.110602869834276865E-15, -1.500000000000000000 ) ) ;
#152 = APPROVAL_STATUS ( 'not_yet_approved' ) ;
#153 = CARTESIAN_POINT ( 'NONE',  ( 25.39999999999999858, 3.110602869834276865E-15, 1.500000000000000000 ) ) ;
#154 = LOCAL_TIME ( 13, 18, 52.00000000000000000, #3 ) ;
#155 = ORIENTED_EDGE ( 'NONE', *, *, #114, .T. ) ;
#156 = PERSON_AND_ORGANIZATION ( #123, #175 ) ;
#157 = CC_DESIGN_PERSON_AND_ORGANIZATION_ASSIGNMENT ( #80, #24, ( #5 ) ) ;
#158 = ORIENTED_EDGE ( 'NONE', *, *, #50, .F. ) ;
#159 = PERSON_AND_ORGANIZATION ( #123, #175 ) ;
#160 = PERSON_AND_ORGANIZATION_ROLE ( 'design_owner' ) ;
#161 = CARTESIAN_POINT ( 'NONE',  ( 25.39999999999999858, 3.110602869834276865E-15, 1.500000000000000000 ) ) ;
#162 = AXIS2_PLACEMENT_3D ( 'NONE', #54, #170, #97 ) ;
#163 = EDGE_LOOP ( 'NONE', ( #158, #31 ) ) ;
#164 = PLANE ( 'NONE',  #25 ) ;
#165 = CC_DESIGN_APPROVAL ( #47, ( #5 ) ) ;
#166 = ADVANCED_FACE ( 'NONE', ( #37 ), #101, .T. ) ;
#167 = DESIGN_CONTEXT ( 'detailed design', #96, 'design' ) ;
#168 = AXIS2_PLACEMENT_3D ( 'NONE', #149, #53, #115 ) ;
#169 =( LENGTH_UNIT ( ) NAMED_UNIT ( * ) SI_UNIT ( .MILLI., .METRE. ) );
#170 = DIRECTION ( 'NONE',  ( 0.0000000000000000000, 0.0000000000000000000, 1.000000000000000000 ) ) ;
#171 = APPROVAL_DATE_TIME ( #75, #47 ) ;
#172 = APPROVAL_ROLE ( '' ) ;
#173 = CC_DESIGN_PERSON_AND_ORGANIZATION_ASSIGNMENT ( #150, #10, ( #11 ) ) ;
#174 = CIRCLE ( 'NONE', #55, 25.39999999999999858 ) ;
#175 = ORGANIZATION ( 'UNSPECIFIED', 'UNSPECIFIED', '' ) ;
ENDSEC;
END-ISO-10303-21;
