ISO-10303-21;
HEADER;
FILE_DESCRIPTION (( 'STEP AP203' ),
    '1' );
FILE_NAME ('Web Model 12296_12296.step',
    '2019-01-23T20:57:01',
    ( '' ),
    ( '' ),
    'SwSTEP 2.0',
    'SolidWorks 2016',
    '' );
FILE_SCHEMA (( 'CONFIG_CONTROL_DESIGN' ));
ENDSEC;

DATA;
#1 = EDGE_CURVE ( 'NONE', #208, #35, #172, .T. ) ;
#2 = APPROVAL_DATE_TIME ( #52, #154 ) ;
#3 = SECURITY_CLASSIFICATION ( '', '', #28 ) ;
#4 = PERSON ( 'UNSPECIFIED', 'UNSPECIFIED', 'UNSPECIFIED', ('UNSPECIFIED'), ('UNSPECIFIED'), ('UNSPECIFIED') ) ;
#5 = DIRECTION ( 'NONE',  ( 1.000000000000000000, 0.0000000000000000000, 0.0000000000000000000 ) ) ;
#6 = DIRECTION ( 'NONE',  ( -0.0000000000000000000, -1.000000000000000000, -0.0000000000000000000 ) ) ;
#7 = LOCAL_TIME ( 15, 57, 1.000000000000000000, #162 ) ;
#8 = VECTOR ( 'NONE', #44, 1000.000000000000000 ) ;
#9 = ORIENTED_EDGE ( 'NONE', *, *, #71, .T. ) ;
#10 = CARTESIAN_POINT ( 'NONE',  ( 49.99999999999998600, -5.000000000000000000, 0.05000000000000000300 ) ) ;
#11 = DATE_AND_TIME ( #213, #45 ) ;
#12 = ORIENTED_EDGE ( 'NONE', *, *, #25, .F. ) ;
#13 = AXIS2_PLACEMENT_3D ( 'NONE', #130, #22, #180 ) ;
#14 = PRODUCT_DEFINITION_SHAPE ( 'NONE', 'NONE',  #119 ) ;
#15 = PERSON_AND_ORGANIZATION ( #4, #175 ) ;
#16 = ORIENTED_EDGE ( 'NONE', *, *, #25, .T. ) ;
#17 = CARTESIAN_POINT ( 'NONE',  ( 49.99999999999998600, 5.000000000000000000, 0.05000000000000000300 ) ) ;
#18 = CC_DESIGN_PERSON_AND_ORGANIZATION_ASSIGNMENT ( #15, #200, ( #133 ) ) ;
#19 = ADVANCED_BREP_SHAPE_REPRESENTATION ( 'Web Model 12296_12296', ( #159, #125 ), #76 ) ;
#20 = CARTESIAN_POINT ( 'NONE',  ( 49.99999999999998600, -5.000000000000000000, 0.05000000000000000300 ) ) ;
#21 = CALENDAR_DATE ( 2019, 23, 1 ) ;
#22 = DIRECTION ( 'NONE',  ( -1.000000000000000000, 0.0000000000000000000, 0.0000000000000000000 ) ) ;
#23 = VECTOR ( 'NONE', #108, 1000.000000000000000 ) ;
#24 = CARTESIAN_POINT ( 'NONE',  ( -50.00000000000001400, -5.000000000000000000, 0.05000000000000000300 ) ) ;
#25 = EDGE_CURVE ( 'NONE', #199, #84, #146, .T. ) ;
#26 = DIRECTION ( 'NONE',  ( 0.0000000000000000000, -0.0000000000000000000, 1.000000000000000000 ) ) ;
#27 = DIRECTION ( 'NONE',  ( 0.0000000000000000000, 0.0000000000000000000, -1.000000000000000000 ) ) ;
#28 = SECURITY_CLASSIFICATION_LEVEL ( 'unclassified' ) ;
#29 = EDGE_CURVE ( 'NONE', #35, #205, #121, .T. ) ;
#30 = DATE_TIME_ROLE ( 'classification_date' ) ;
#31 = APPROVAL_PERSON_ORGANIZATION ( #204, #236, #61 ) ;
#32 = VERTEX_POINT ( 'NONE', #144 ) ;
#33 = UNCERTAINTY_MEASURE_WITH_UNIT (LENGTH_MEASURE( 1.000000000000000100E-005 ), #57, 'distance_accuracy_value', 'NONE');
#34 = VECTOR ( 'NONE', #141, 1000.000000000000000 ) ;
#35 = VERTEX_POINT ( 'NONE', #212 ) ;
#36 = ORIENTED_EDGE ( 'NONE', *, *, #111, .F. ) ;
#37 = LINE ( 'NONE', #221, #135 ) ;
#38 = PLANE ( 'NONE',  #203 ) ;
#39 = APPLICATION_CONTEXT ( 'configuration controlled 3d designs of mechanical parts and assemblies' ) ;
#40 = DATE_AND_TIME ( #101, #149 ) ;
#41 = FACE_OUTER_BOUND ( 'NONE', #192, .T. ) ;
#42 = APPLICATION_PROTOCOL_DEFINITION ( 'international standard', 'config_control_design', 1994, #82 ) ;
#43 = DIRECTION ( 'NONE',  ( 0.0000000000000000000, 1.000000000000000000, 0.0000000000000000000 ) ) ;
#44 = DIRECTION ( 'NONE',  ( 1.000000000000000000, 0.0000000000000000000, 0.0000000000000000000 ) ) ;
#45 = LOCAL_TIME ( 15, 57, 1.000000000000000000, #58 ) ;
#46 = VECTOR ( 'NONE', #107, 1000.000000000000000 ) ;
#47 = DIRECTION ( 'NONE',  ( -1.000000000000000000, -0.0000000000000000000, -0.0000000000000000000 ) ) ;
#48 = EDGE_LOOP ( 'NONE', ( #9, #232, #12, #55 ) ) ;
#49 = CC_DESIGN_APPROVAL ( #236, ( #66 ) ) ;
#50 = CARTESIAN_POINT ( 'NONE',  ( -50.00000000000001400, -5.000000000000000000, 0.05000000000000000300 ) ) ;
#51 = DESIGN_CONTEXT ( 'detailed design', #39, 'design' ) ;
#52 = DATE_AND_TIME ( #99, #184 ) ;
#53 = APPROVAL_PERSON_ORGANIZATION ( #227, #98, #155 ) ;
#54 = CARTESIAN_POINT ( 'NONE',  ( 0.0000000000000000000, 0.0000000000000000000, -0.05000000000000000300 ) ) ;
#55 = ORIENTED_EDGE ( 'NONE', *, *, #111, .T. ) ;
#56 = DIRECTION ( 'NONE',  ( -1.000000000000000000, 0.0000000000000000000, -0.0000000000000000000 ) ) ;
#57 =( LENGTH_UNIT ( ) NAMED_UNIT ( * ) SI_UNIT ( .MILLI., .METRE. ) );
#58 = COORDINATED_UNIVERSAL_TIME_OFFSET ( 5, 0, .BEHIND. ) ;
#59 = PERSON_AND_ORGANIZATION ( #4, #175 ) ;
#60 = ORIENTED_EDGE ( 'NONE', *, *, #29, .T. ) ;
#61 = APPROVAL_ROLE ( '' ) ;
#62 = CC_DESIGN_PERSON_AND_ORGANIZATION_ASSIGNMENT ( #117, #136, ( #66 ) ) ;
#63 = CLOSED_SHELL ( 'NONE', ( #140, #89, #207, #170, #86, #139 ) ) ;
#64 = AXIS2_PLACEMENT_3D ( 'NONE', #105, #211, #234 ) ;
#65 = DIRECTION ( 'NONE',  ( 0.0000000000000000000, -1.000000000000000000, 0.0000000000000000000 ) ) ;
#66 = PRODUCT_DEFINITION_FORMATION_WITH_SPECIFIED_SOURCE ( 'ANY', '', #133, .NOT_KNOWN. ) ;
#67 = EDGE_LOOP ( 'NONE', ( #167, #102, #106, #160 ) ) ;
#68 = DIRECTION ( 'NONE',  ( -1.000000000000000000, -0.0000000000000000000, -0.0000000000000000000 ) ) ;
#69 = CARTESIAN_POINT ( 'NONE',  ( -50.00000000000001400, 5.000000000000000000, -0.05000000000000000300 ) ) ;
#70 = DIRECTION ( 'NONE',  ( 0.0000000000000000000, 1.000000000000000000, 0.0000000000000000000 ) ) ;
#71 = EDGE_CURVE ( 'NONE', #205, #32, #126, .T. ) ;
#72 = EDGE_LOOP ( 'NONE', ( #96, #103, #147, #194 ) ) ;
#73 = VECTOR ( 'NONE', #6, 1000.000000000000000 ) ;
#74 = ORIENTED_EDGE ( 'NONE', *, *, #210, .T. ) ;
#75 = CC_DESIGN_PERSON_AND_ORGANIZATION_ASSIGNMENT ( #190, #206, ( #3 ) ) ;
#76 =( GEOMETRIC_REPRESENTATION_CONTEXT ( 3 ) GLOBAL_UNCERTAINTY_ASSIGNED_CONTEXT ( ( #33 ) ) GLOBAL_UNIT_ASSIGNED_CONTEXT ( ( #57, #218, #78 ) ) REPRESENTATION_CONTEXT ( 'NONE', 'WORKASPACE' ) );
#77 = CARTESIAN_POINT ( 'NONE',  ( 0.0000000000000000000, 0.0000000000000000000, 0.0000000000000000000 ) ) ;
#78 =( NAMED_UNIT ( * ) SI_UNIT ( $, .STERADIAN. ) SOLID_ANGLE_UNIT ( ) );
#79 = DATE_AND_TIME ( #21, #171 ) ;
#80 = LINE ( 'NONE', #50, #73 ) ;
#81 = EDGE_CURVE ( 'NONE', #153, #35, #230, .T. ) ;
#82 = APPLICATION_CONTEXT ( 'configuration controlled 3d designs of mechanical parts and assemblies' ) ;
#83 = VECTOR ( 'NONE', #68, 1000.000000000000000 ) ;
#84 = VERTEX_POINT ( 'NONE', #209 ) ;
#85 = DIRECTION ( 'NONE',  ( 0.0000000000000000000, 0.0000000000000000000, 1.000000000000000000 ) ) ;
#86 = ADVANCED_FACE ( 'NONE', ( #41 ), #90, .F. ) ;
#87 = ORIENTED_EDGE ( 'NONE', *, *, #81, .T. ) ;
#88 = CARTESIAN_POINT ( 'NONE',  ( -50.00000000000001400, 5.000000000000000000, 0.05000000000000000300 ) ) ;
#89 = ADVANCED_FACE ( 'NONE', ( #187 ), #173, .F. ) ;
#90 = PLANE ( 'NONE',  #64 ) ;
#91 = PERSON_AND_ORGANIZATION ( #4, #175 ) ;
#92 = ORIENTED_EDGE ( 'NONE', *, *, #191, .T. ) ;
#93 = EDGE_CURVE ( 'NONE', #84, #145, #80, .T. ) ;
#94 = CARTESIAN_POINT ( 'NONE',  ( -50.00000000000001400, 5.000000000000000000, 0.05000000000000000300 ) ) ;
#95 = VECTOR ( 'NONE', #70, 1000.000000000000000 ) ;
#96 = ORIENTED_EDGE ( 'NONE', *, *, #1, .T. ) ;
#97 = APPROVAL_STATUS ( 'not_yet_approved' ) ;
#98 = APPROVAL ( #97, 'UNSPECIFIED' ) ;
#99 = CALENDAR_DATE ( 2019, 23, 1 ) ;
#100 = AXIS2_PLACEMENT_3D ( 'NONE', #88, #65, #185 ) ;
#101 = CALENDAR_DATE ( 2019, 23, 1 ) ;
#102 = ORIENTED_EDGE ( 'NONE', *, *, #1, .F. ) ;
#103 = ORIENTED_EDGE ( 'NONE', *, *, #81, .F. ) ;
#104 = CC_DESIGN_PERSON_AND_ORGANIZATION_ASSIGNMENT ( #165, #114, ( #66 ) ) ;
#105 = CARTESIAN_POINT ( 'NONE',  ( 0.0000000000000000000, 0.0000000000000000000, 0.05000000000000000300 ) ) ;
#106 = ORIENTED_EDGE ( 'NONE', *, *, #191, .F. ) ;
#107 = DIRECTION ( 'NONE',  ( -0.0000000000000000000, -0.0000000000000000000, -1.000000000000000000 ) ) ;
#108 = DIRECTION ( 'NONE',  ( -0.0000000000000000000, -0.0000000000000000000, -1.000000000000000000 ) ) ;
#109 = CALENDAR_DATE ( 2019, 23, 1 ) ;
#110 = CC_DESIGN_DATE_AND_TIME_ASSIGNMENT ( #79, #156, ( #119 ) ) ;
#111 = EDGE_CURVE ( 'NONE', #199, #205, #142, .T. ) ;
#112 = VECTOR ( 'NONE', #118, 1000.000000000000000 ) ;
#113 = APPLICATION_PROTOCOL_DEFINITION ( 'international standard', 'config_control_design', 1994, #39 ) ;
#114 = PERSON_AND_ORGANIZATION_ROLE ( 'design_supplier' ) ;
#115 = PLANE ( 'NONE',  #233 ) ;
#116 = PERSON_AND_ORGANIZATION_ROLE ( 'creator' ) ;
#117 = PERSON_AND_ORGANIZATION ( #4, #175 ) ;
#118 = DIRECTION ( 'NONE',  ( 0.0000000000000000000, 1.000000000000000000, 0.0000000000000000000 ) ) ;
#119 = PRODUCT_DEFINITION ( 'UNKNOWN', '', #66, #51 ) ;
#120 = APPROVAL_ROLE ( '' ) ;
#121 = LINE ( 'NONE', #186, #95 ) ;
#122 = CARTESIAN_POINT ( 'NONE',  ( -50.00000000000001400, -5.000000000000000000, -0.05000000000000000300 ) ) ;
#123 = EDGE_CURVE ( 'NONE', #145, #208, #235, .T. ) ;
#124 = ORIENTED_EDGE ( 'NONE', *, *, #123, .F. ) ;
#125 = AXIS2_PLACEMENT_3D ( 'NONE', #77, #85, #166 ) ;
#126 = LINE ( 'NONE', #69, #182 ) ;
#127 = AXIS2_PLACEMENT_3D ( 'NONE', #54, #161, #56 ) ;
#128 = VECTOR ( 'NONE', #231, 1000.000000000000000 ) ;
#129 = ORIENTED_EDGE ( 'NONE', *, *, #223, .F. ) ;
#130 = CARTESIAN_POINT ( 'NONE',  ( 49.99999999999998600, -5.000000000000000000, 0.05000000000000000300 ) ) ;
#131 = PLANE ( 'NONE',  #13 ) ;
#132 = ORIENTED_EDGE ( 'NONE', *, *, #93, .F. ) ;
#133 = PRODUCT ( 'Web Model 12296_12296', 'Web Model 12296_12296', '', ( #150 ) ) ;
#134 = CARTESIAN_POINT ( 'NONE',  ( -50.00000000000001400, -5.000000000000000000, -0.05000000000000000300 ) ) ;
#135 = VECTOR ( 'NONE', #196, 1000.000000000000000 ) ;
#136 = PERSON_AND_ORGANIZATION_ROLE ( 'creator' ) ;
#137 = CC_DESIGN_APPROVAL ( #98, ( #3 ) ) ;
#138 = APPROVAL_STATUS ( 'not_yet_approved' ) ;
#139 = ADVANCED_FACE ( 'NONE', ( #228 ), #151, .T. ) ;
#140 = ADVANCED_FACE ( 'NONE', ( #216 ), #131, .F. ) ;
#141 = DIRECTION ( 'NONE',  ( 1.000000000000000000, 0.0000000000000000000, 0.0000000000000000000 ) ) ;
#142 = LINE ( 'NONE', #17, #46 ) ;
#143 = CC_DESIGN_DATE_AND_TIME_ASSIGNMENT ( #40, #30, ( #3 ) ) ;
#144 = CARTESIAN_POINT ( 'NONE',  ( -50.00000000000001400, 5.000000000000000000, -0.05000000000000000300 ) ) ;
#145 = VERTEX_POINT ( 'NONE', #163 ) ;
#146 = LINE ( 'NONE', #174, #83 ) ;
#147 = ORIENTED_EDGE ( 'NONE', *, *, #210, .F. ) ;
#148 = CC_DESIGN_SECURITY_CLASSIFICATION ( #3, ( #66 ) ) ;
#149 = LOCAL_TIME ( 15, 57, 1.000000000000000000, #152 ) ;
#150 = MECHANICAL_CONTEXT ( 'NONE', #82, 'mechanical' ) ;
#151 = PLANE ( 'NONE',  #127 ) ;
#152 = COORDINATED_UNIVERSAL_TIME_OFFSET ( 5, 0, .BEHIND. ) ;
#153 = VERTEX_POINT ( 'NONE', #20 ) ;
#154 = APPROVAL ( #202, 'UNSPECIFIED' ) ;
#155 = APPROVAL_ROLE ( '' ) ;
#156 = DATE_TIME_ROLE ( 'creation_date' ) ;
#157 = APPROVAL_DATE_TIME ( #181, #98 ) ;
#158 = COORDINATED_UNIVERSAL_TIME_OFFSET ( 5, 0, .BEHIND. ) ;
#159 = MANIFOLD_SOLID_BREP ( 'Boss-Extrude1', #63 ) ;
#160 = ORIENTED_EDGE ( 'NONE', *, *, #71, .F. ) ;
#161 = DIRECTION ( 'NONE',  ( 0.0000000000000000000, 0.0000000000000000000, -1.000000000000000000 ) ) ;
#162 = COORDINATED_UNIVERSAL_TIME_OFFSET ( 5, 0, .BEHIND. ) ;
#163 = CARTESIAN_POINT ( 'NONE',  ( -50.00000000000001400, -5.000000000000000000, 0.05000000000000000300 ) ) ;
#164 = CARTESIAN_POINT ( 'NONE',  ( 49.99999999999998600, -5.000000000000000000, 0.05000000000000000300 ) ) ;
#165 = PERSON_AND_ORGANIZATION ( #4, #175 ) ;
#166 = DIRECTION ( 'NONE',  ( 1.000000000000000000, 0.0000000000000000000, 0.0000000000000000000 ) ) ;
#167 = ORIENTED_EDGE ( 'NONE', *, *, #29, .F. ) ;
#168 = CARTESIAN_POINT ( 'NONE',  ( -50.00000000000001400, -5.000000000000000000, 0.05000000000000000300 ) ) ;
#169 = SHAPE_DEFINITION_REPRESENTATION ( #14, #19 ) ;
#170 = ADVANCED_FACE ( 'NONE', ( #198 ), #38, .F. ) ;
#171 = LOCAL_TIME ( 15, 57, 1.000000000000000000, #188 ) ;
#172 = LINE ( 'NONE', #122, #34 ) ;
#173 = PLANE ( 'NONE',  #100 ) ;
#174 = CARTESIAN_POINT ( 'NONE',  ( -50.00000000000001400, 5.000000000000000000, 0.05000000000000000300 ) ) ;
#175 = ORGANIZATION ( 'UNSPECIFIED', 'UNSPECIFIED', '' ) ;
#176 = EDGE_LOOP ( 'NONE', ( #92, #124, #132, #217 ) ) ;
#177 = CC_DESIGN_APPROVAL ( #154, ( #119 ) ) ;
#178 = FACE_OUTER_BOUND ( 'NONE', #176, .T. ) ;
#179 = APPROVAL_PERSON_ORGANIZATION ( #59, #154, #120 ) ;
#180 = DIRECTION ( 'NONE',  ( 0.0000000000000000000, 0.0000000000000000000, 1.000000000000000000 ) ) ;
#181 = DATE_AND_TIME ( #109, #7 ) ;
#182 = VECTOR ( 'NONE', #47, 1000.000000000000000 ) ;
#183 = CC_DESIGN_PERSON_AND_ORGANIZATION_ASSIGNMENT ( #91, #116, ( #119 ) ) ;
#184 = LOCAL_TIME ( 15, 57, 1.000000000000000000, #158 ) ;
#185 = DIRECTION ( 'NONE',  ( 0.0000000000000000000, -0.0000000000000000000, -1.000000000000000000 ) ) ;
#186 = CARTESIAN_POINT ( 'NONE',  ( 49.99999999999998600, -5.000000000000000000, -0.05000000000000000300 ) ) ;
#187 = FACE_OUTER_BOUND ( 'NONE', #48, .T. ) ;
#188 = COORDINATED_UNIVERSAL_TIME_OFFSET ( 5, 0, .BEHIND. ) ;
#189 = ORIENTED_EDGE ( 'NONE', *, *, #223, .T. ) ;
#190 = PERSON_AND_ORGANIZATION ( #4, #175 ) ;
#191 = EDGE_CURVE ( 'NONE', #32, #208, #37, .T. ) ;
#192 = EDGE_LOOP ( 'NONE', ( #189, #16, #215, #74 ) ) ;
#193 = CARTESIAN_POINT ( 'NONE',  ( -50.00000000000001400, -5.000000000000000000, 0.05000000000000000300 ) ) ;
#194 = ORIENTED_EDGE ( 'NONE', *, *, #123, .T. ) ;
#195 = EDGE_CURVE ( 'NONE', #84, #32, #220, .T. ) ;
#196 = DIRECTION ( 'NONE',  ( -0.0000000000000000000, -1.000000000000000000, -0.0000000000000000000 ) ) ;
#197 = APPROVAL_DATE_TIME ( #11, #236 ) ;
#198 = FACE_OUTER_BOUND ( 'NONE', #72, .T. ) ;
#199 = VERTEX_POINT ( 'NONE', #222 ) ;
#200 = PERSON_AND_ORGANIZATION_ROLE ( 'design_owner' ) ;
#201 = DIRECTION ( 'NONE',  ( -0.0000000000000000000, -0.0000000000000000000, -1.000000000000000000 ) ) ;
#202 = APPROVAL_STATUS ( 'not_yet_approved' ) ;
#203 = AXIS2_PLACEMENT_3D ( 'NONE', #24, #43, #26 ) ;
#204 = PERSON_AND_ORGANIZATION ( #4, #175 ) ;
#205 = VERTEX_POINT ( 'NONE', #224 ) ;
#206 = PERSON_AND_ORGANIZATION_ROLE ( 'classification_officer' ) ;
#207 = ADVANCED_FACE ( 'NONE', ( #178 ), #115, .F. ) ;
#208 = VERTEX_POINT ( 'NONE', #134 ) ;
#209 = CARTESIAN_POINT ( 'NONE',  ( -50.00000000000001400, 5.000000000000000000, 0.05000000000000000300 ) ) ;
#210 = EDGE_CURVE ( 'NONE', #145, #153, #214, .T. ) ;
#211 = DIRECTION ( 'NONE',  ( 0.0000000000000000000, 0.0000000000000000000, -1.000000000000000000 ) ) ;
#212 = CARTESIAN_POINT ( 'NONE',  ( 49.99999999999998600, -5.000000000000000000, -0.05000000000000000300 ) ) ;
#213 = CALENDAR_DATE ( 2019, 23, 1 ) ;
#214 = LINE ( 'NONE', #219, #8 ) ;
#215 = ORIENTED_EDGE ( 'NONE', *, *, #93, .T. ) ;
#216 = FACE_OUTER_BOUND ( 'NONE', #226, .T. ) ;
#217 = ORIENTED_EDGE ( 'NONE', *, *, #195, .T. ) ;
#218 =( NAMED_UNIT ( * ) PLANE_ANGLE_UNIT ( ) SI_UNIT ( $, .RADIAN. ) );
#219 = CARTESIAN_POINT ( 'NONE',  ( -50.00000000000001400, -5.000000000000000000, 0.05000000000000000300 ) ) ;
#220 = LINE ( 'NONE', #94, #225 ) ;
#221 = CARTESIAN_POINT ( 'NONE',  ( -50.00000000000001400, -5.000000000000000000, -0.05000000000000000300 ) ) ;
#222 = CARTESIAN_POINT ( 'NONE',  ( 49.99999999999998600, 5.000000000000000000, 0.05000000000000000300 ) ) ;
#223 = EDGE_CURVE ( 'NONE', #153, #199, #237, .T. ) ;
#224 = CARTESIAN_POINT ( 'NONE',  ( 49.99999999999998600, 5.000000000000000000, -0.05000000000000000300 ) ) ;
#225 = VECTOR ( 'NONE', #201, 1000.000000000000000 ) ;
#226 = EDGE_LOOP ( 'NONE', ( #60, #36, #129, #87 ) ) ;
#227 = PERSON_AND_ORGANIZATION ( #4, #175 ) ;
#228 = FACE_OUTER_BOUND ( 'NONE', #67, .T. ) ;
#229 = PRODUCT_RELATED_PRODUCT_CATEGORY ( 'detail', '', ( #133 ) ) ;
#230 = LINE ( 'NONE', #10, #128 ) ;
#231 = DIRECTION ( 'NONE',  ( -0.0000000000000000000, -0.0000000000000000000, -1.000000000000000000 ) ) ;
#232 = ORIENTED_EDGE ( 'NONE', *, *, #195, .F. ) ;
#233 = AXIS2_PLACEMENT_3D ( 'NONE', #168, #5, #27 ) ;
#234 = DIRECTION ( 'NONE',  ( -1.000000000000000000, 0.0000000000000000000, -0.0000000000000000000 ) ) ;
#235 = LINE ( 'NONE', #193, #23 ) ;
#236 = APPROVAL ( #138, 'UNSPECIFIED' ) ;
#237 = LINE ( 'NONE', #164, #112 ) ;
ENDSEC;
END-ISO-10303-21;
