ISO-10303-21;
HEADER;
FILE_DESCRIPTION (( 'STEP AP203' ),
    '1' );
FILE_NAME ('Web Model 46067_46071.step',
    '2017-07-13T13:27:24',
    ( '' ),
    ( '' ),
    'SwSTEP 2.0',
    'SolidWorks 2016',
    '' );
FILE_SCHEMA (( 'CONFIG_CONTROL_DESIGN' ));
ENDSEC;

DATA;
#1 = DIRECTION ( 'NONE',  ( -0.0000000000000000000, -1.000000000000000000, -0.0000000000000000000 ) ) ;
#2 = DIRECTION ( 'NONE',  ( 0.0000000000000000000, 0.0000000000000000000, -1.000000000000000000 ) ) ;
#3 = PERSON_AND_ORGANIZATION ( #113, #198 ) ;
#4 = PERSON_AND_ORGANIZATION ( #113, #198 ) ;
#5 = CARTESIAN_POINT ( 'NONE',  ( -6.349999999999999600, -6.349999999999999600, 1.500000000000000000 ) ) ;
#6 = ORIENTED_EDGE ( 'NONE', *, *, #103, .F. ) ;
#7 = EDGE_CURVE ( 'NONE', #155, #16, #165, .T. ) ;
#8 = LINE ( 'NONE', #183, #81 ) ;
#9 = APPLICATION_CONTEXT ( 'configuration controlled 3d designs of mechanical parts and assemblies' ) ;
#10 = VERTEX_POINT ( 'NONE', #84 ) ;
#11 = CC_DESIGN_DATE_AND_TIME_ASSIGNMENT ( #158, #43, ( #225 ) ) ;
#12 = SHAPE_DEFINITION_REPRESENTATION ( #182, #49 ) ;
#13 = APPROVAL_DATE_TIME ( #231, #121 ) ;
#14 = EDGE_CURVE ( 'NONE', #192, #16, #74, .T. ) ;
#15 = PLANE ( 'NONE',  #112 ) ;
#16 = VERTEX_POINT ( 'NONE', #213 ) ;
#17 = CARTESIAN_POINT ( 'NONE',  ( 6.349999999999999600, -6.349999999999999600, 1.500000000000000000 ) ) ;
#18 = CARTESIAN_POINT ( 'NONE',  ( 0.0000000000000000000, 0.0000000000000000000, 0.0000000000000000000 ) ) ;
#19 = VERTEX_POINT ( 'NONE', #52 ) ;
#20 = CC_DESIGN_PERSON_AND_ORGANIZATION_ASSIGNMENT ( #208, #118, ( #232 ) ) ;
#21 = VECTOR ( 'NONE', #40, 1000.000000000000000 ) ;
#22 = CARTESIAN_POINT ( 'NONE',  ( -6.349999999999999600, -6.349999999999999600, 1.500000000000000000 ) ) ;
#23 = APPROVAL_DATE_TIME ( #39, #107 ) ;
#24 = FACE_OUTER_BOUND ( 'NONE', #78, .T. ) ;
#25 = ORIENTED_EDGE ( 'NONE', *, *, #47, .F. ) ;
#26 = CLOSED_SHELL ( 'NONE', ( #29, #128, #139, #64, #36, #130 ) ) ;
#27 = SECURITY_CLASSIFICATION_LEVEL ( 'unclassified' ) ;
#28 = VERTEX_POINT ( 'NONE', #197 ) ;
#29 = ADVANCED_FACE ( 'NONE', ( #120 ), #93, .F. ) ;
#30 = ORIENTED_EDGE ( 'NONE', *, *, #176, .F. ) ;
#31 = FACE_OUTER_BOUND ( 'NONE', #148, .T. ) ;
#32 = ORIENTED_EDGE ( 'NONE', *, *, #100, .F. ) ;
#33 = LOCAL_TIME ( 9, 27, 24.00000000000000000, #61 ) ;
#34 = ORIENTED_EDGE ( 'NONE', *, *, #114, .F. ) ;
#35 = CC_DESIGN_SECURITY_CLASSIFICATION ( #225, ( #232 ) ) ;
#36 = ADVANCED_FACE ( 'NONE', ( #24 ), #15, .F. ) ;
#37 = FACE_OUTER_BOUND ( 'NONE', #92, .T. ) ;
#38 = EDGE_LOOP ( 'NONE', ( #152, #25, #30, #215 ) ) ;
#39 = DATE_AND_TIME ( #172, #94 ) ;
#40 = DIRECTION ( 'NONE',  ( 1.000000000000000000, 0.0000000000000000000, 0.0000000000000000000 ) ) ;
#41 = LINE ( 'NONE', #58, #212 ) ;
#42 = PERSON_AND_ORGANIZATION_ROLE ( 'creator' ) ;
#43 = DATE_TIME_ROLE ( 'classification_date' ) ;
#44 = DATE_AND_TIME ( #184, #141 ) ;
#45 = DIRECTION ( 'NONE',  ( -1.000000000000000000, -0.0000000000000000000, -0.0000000000000000000 ) ) ;
#46 = ORIENTED_EDGE ( 'NONE', *, *, #7, .T. ) ;
#47 = EDGE_CURVE ( 'NONE', #19, #28, #209, .T. ) ;
#48 = VECTOR ( 'NONE', #1, 1000.000000000000000 ) ;
#49 = ADVANCED_BREP_SHAPE_REPRESENTATION ( 'Web Model 46067_46071', ( #228, #171 ), #59 ) ;
#50 = ORIENTED_EDGE ( 'NONE', *, *, #134, .T. ) ;
#51 = ORIENTED_EDGE ( 'NONE', *, *, #180, .F. ) ;
#52 = CARTESIAN_POINT ( 'NONE',  ( 6.349999999999999600, -6.349999999999999600, 1.500000000000000000 ) ) ;
#53 = APPROVAL_PERSON_ORGANIZATION ( #105, #121, #63 ) ;
#54 = DIRECTION ( 'NONE',  ( 1.000000000000000000, 0.0000000000000000000, 0.0000000000000000000 ) ) ;
#55 = DIRECTION ( 'NONE',  ( -1.000000000000000000, 0.0000000000000000000, -0.0000000000000000000 ) ) ;
#56 = VECTOR ( 'NONE', #57, 1000.000000000000000 ) ;
#57 = DIRECTION ( 'NONE',  ( -0.0000000000000000000, -0.0000000000000000000, -1.000000000000000000 ) ) ;
#58 = CARTESIAN_POINT ( 'NONE',  ( -6.349999999999999600, -6.349999999999999600, 1.500000000000000000 ) ) ;
#59 =( GEOMETRIC_REPRESENTATION_CONTEXT ( 3 ) GLOBAL_UNCERTAINTY_ASSIGNED_CONTEXT ( ( #187 ) ) GLOBAL_UNIT_ASSIGNED_CONTEXT ( ( #188, #102, #210 ) ) REPRESENTATION_CONTEXT ( 'NONE', 'WORKASPACE' ) );
#60 = APPROVAL_STATUS ( 'not_yet_approved' ) ;
#61 = COORDINATED_UNIVERSAL_TIME_OFFSET ( 5, 0, .BEHIND. ) ;
#62 = ORIENTED_EDGE ( 'NONE', *, *, #75, .T. ) ;
#63 = APPROVAL_ROLE ( '' ) ;
#64 = ADVANCED_FACE ( 'NONE', ( #117 ), #161, .F. ) ;
#65 = EDGE_CURVE ( 'NONE', #10, #192, #178, .T. ) ;
#66 = VECTOR ( 'NONE', #175, 1000.000000000000000 ) ;
#67 = DIRECTION ( 'NONE',  ( 0.0000000000000000000, 1.000000000000000000, 0.0000000000000000000 ) ) ;
#68 = DIRECTION ( 'NONE',  ( -1.000000000000000000, 0.0000000000000000000, -0.0000000000000000000 ) ) ;
#69 = DIRECTION ( 'NONE',  ( -0.0000000000000000000, -1.000000000000000000, -0.0000000000000000000 ) ) ;
#70 = LINE ( 'NONE', #22, #21 ) ;
#71 = CARTESIAN_POINT ( 'NONE',  ( -6.349999999999999600, -6.349999999999999600, 1.500000000000000000 ) ) ;
#72 = PLANE ( 'NONE',  #206 ) ;
#73 = PRODUCT_RELATED_PRODUCT_CATEGORY ( 'detail', '', ( #202 ) ) ;
#74 = LINE ( 'NONE', #125, #66 ) ;
#75 = EDGE_CURVE ( 'NONE', #16, #83, #89, .T. ) ;
#76 = ORIENTED_EDGE ( 'NONE', *, *, #7, .F. ) ;
#77 = VECTOR ( 'NONE', #69, 1000.000000000000000 ) ;
#78 = EDGE_LOOP ( 'NONE', ( #50, #132, #131, #218 ) ) ;
#79 = COORDINATED_UNIVERSAL_TIME_OFFSET ( 5, 0, .BEHIND. ) ;
#80 = DATE_TIME_ROLE ( 'creation_date' ) ;
#81 = VECTOR ( 'NONE', #200, 1000.000000000000000 ) ;
#82 = CC_DESIGN_APPROVAL ( #229, ( #154 ) ) ;
#83 = VERTEX_POINT ( 'NONE', #160 ) ;
#84 = CARTESIAN_POINT ( 'NONE',  ( 6.349999999999999600, 6.349999999999999600, 1.500000000000000000 ) ) ;
#85 = CARTESIAN_POINT ( 'NONE',  ( -6.349999999999999600, 6.349999999999999600, -1.500000000000000000 ) ) ;
#86 = CARTESIAN_POINT ( 'NONE',  ( 6.349999999999999600, -6.349999999999999600, 1.500000000000000000 ) ) ;
#87 = EDGE_LOOP ( 'NONE', ( #34, #51, #124, #76 ) ) ;
#88 = AXIS2_PLACEMENT_3D ( 'NONE', #86, #216, #179 ) ;
#89 = LINE ( 'NONE', #195, #77 ) ;
#90 = DIRECTION ( 'NONE',  ( 0.0000000000000000000, -0.0000000000000000000, 1.000000000000000000 ) ) ;
#91 = DIRECTION ( 'NONE',  ( -1.000000000000000000, -0.0000000000000000000, -0.0000000000000000000 ) ) ;
#92 = EDGE_LOOP ( 'NONE', ( #46, #99, #174, #201 ) ) ;
#93 = PLANE ( 'NONE',  #88 ) ;
#94 = LOCAL_TIME ( 9, 27, 24.00000000000000000, #222 ) ;
#95 = CARTESIAN_POINT ( 'NONE',  ( 6.349999999999999600, -6.349999999999999600, 1.500000000000000000 ) ) ;
#96 = LINE ( 'NONE', #205, #163 ) ;
#97 = CALENDAR_DATE ( 2017, 13, 7 ) ;
#98 = ORIENTED_EDGE ( 'NONE', *, *, #47, .T. ) ;
#99 = ORIENTED_EDGE ( 'NONE', *, *, #14, .F. ) ;
#100 = EDGE_CURVE ( 'NONE', #192, #144, #219, .T. ) ;
#101 = APPROVAL_ROLE ( '' ) ;
#102 =( NAMED_UNIT ( * ) PLANE_ANGLE_UNIT ( ) SI_UNIT ( $, .RADIAN. ) );
#103 = EDGE_CURVE ( 'NONE', #10, #155, #204, .T. ) ;
#104 = AXIS2_PLACEMENT_3D ( 'NONE', #5, #54, #151 ) ;
#105 = PERSON_AND_ORGANIZATION ( #113, #198 ) ;
#106 = EDGE_LOOP ( 'NONE', ( #138, #6, #227, #98 ) ) ;
#107 = APPROVAL ( #230, 'UNSPECIFIED' ) ;
#108 = VECTOR ( 'NONE', #45, 1000.000000000000000 ) ;
#109 = LOCAL_TIME ( 9, 27, 24.00000000000000000, #214 ) ;
#110 = APPROVAL_DATE_TIME ( #122, #229 ) ;
#111 = PLANE ( 'NONE',  #104 ) ;
#112 = AXIS2_PLACEMENT_3D ( 'NONE', #237, #177, #68 ) ;
#113 = PERSON ( 'UNSPECIFIED', 'UNSPECIFIED', 'UNSPECIFIED', ('UNSPECIFIED'), ('UNSPECIFIED'), ('UNSPECIFIED') ) ;
#114 = EDGE_CURVE ( 'NONE', #28, #155, #8, .T. ) ;
#115 = ORIENTED_EDGE ( 'NONE', *, *, #217, .F. ) ;
#116 = APPROVAL_ROLE ( '' ) ;
#117 = FACE_OUTER_BOUND ( 'NONE', #38, .T. ) ;
#118 = PERSON_AND_ORGANIZATION_ROLE ( 'creator' ) ;
#119 = APPLICATION_CONTEXT ( 'configuration controlled 3d designs of mechanical parts and assemblies' ) ;
#120 = FACE_OUTER_BOUND ( 'NONE', #106, .T. ) ;
#121 = APPROVAL ( #133, 'UNSPECIFIED' ) ;
#122 = DATE_AND_TIME ( #234, #169 ) ;
#123 = DIRECTION ( 'NONE',  ( -0.0000000000000000000, -0.0000000000000000000, -1.000000000000000000 ) ) ;
#124 = ORIENTED_EDGE ( 'NONE', *, *, #75, .F. ) ;
#125 = CARTESIAN_POINT ( 'NONE',  ( -6.349999999999999600, 6.349999999999999600, 1.500000000000000000 ) ) ;
#126 = ORIENTED_EDGE ( 'NONE', *, *, #14, .T. ) ;
#127 = CARTESIAN_POINT ( 'NONE',  ( 0.0000000000000000000, 0.0000000000000000000, -1.500000000000000000 ) ) ;
#128 = ADVANCED_FACE ( 'NONE', ( #37 ), #181, .F. ) ;
#129 = DIRECTION ( 'NONE',  ( 0.0000000000000000000, 1.000000000000000000, 0.0000000000000000000 ) ) ;
#130 = ADVANCED_FACE ( 'NONE', ( #136 ), #72, .T. ) ;
#131 = ORIENTED_EDGE ( 'NONE', *, *, #100, .T. ) ;
#132 = ORIENTED_EDGE ( 'NONE', *, *, #65, .T. ) ;
#133 = APPROVAL_STATUS ( 'not_yet_approved' ) ;
#134 = EDGE_CURVE ( 'NONE', #19, #10, #167, .T. ) ;
#135 = PERSON_AND_ORGANIZATION_ROLE ( 'design_owner' ) ;
#136 = FACE_OUTER_BOUND ( 'NONE', #87, .T. ) ;
#137 = PERSON_AND_ORGANIZATION_ROLE ( 'design_supplier' ) ;
#138 = ORIENTED_EDGE ( 'NONE', *, *, #114, .T. ) ;
#139 = ADVANCED_FACE ( 'NONE', ( #31 ), #111, .F. ) ;
#140 = PERSON_AND_ORGANIZATION ( #113, #198 ) ;
#141 = LOCAL_TIME ( 9, 27, 24.00000000000000000, #191 ) ;
#142 = DESIGN_CONTEXT ( 'detailed design', #119, 'design' ) ;
#143 = DIRECTION ( 'NONE',  ( 0.0000000000000000000, -0.0000000000000000000, -1.000000000000000000 ) ) ;
#144 = VERTEX_POINT ( 'NONE', #145 ) ;
#145 = CARTESIAN_POINT ( 'NONE',  ( -6.349999999999999600, -6.349999999999999600, 1.500000000000000000 ) ) ;
#146 = VECTOR ( 'NONE', #129, 1000.000000000000000 ) ;
#147 = AXIS2_PLACEMENT_3D ( 'NONE', #71, #67, #90 ) ;
#148 = EDGE_LOOP ( 'NONE', ( #62, #115, #32, #126 ) ) ;
#149 = DIRECTION ( 'NONE',  ( -0.0000000000000000000, -0.0000000000000000000, -1.000000000000000000 ) ) ;
#150 = VECTOR ( 'NONE', #123, 1000.000000000000000 ) ;
#151 = DIRECTION ( 'NONE',  ( 0.0000000000000000000, 0.0000000000000000000, -1.000000000000000000 ) ) ;
#152 = ORIENTED_EDGE ( 'NONE', *, *, #180, .T. ) ;
#153 = MECHANICAL_CONTEXT ( 'NONE', #9, 'mechanical' ) ;
#154 = PRODUCT_DEFINITION ( 'UNKNOWN', '', #232, #142 ) ;
#155 = VERTEX_POINT ( 'NONE', #226 ) ;
#156 = APPLICATION_PROTOCOL_DEFINITION ( 'international standard', 'config_control_design', 1994, #119 ) ;
#157 = PERSON_AND_ORGANIZATION_ROLE ( 'classification_officer' ) ;
#158 = DATE_AND_TIME ( #193, #33 ) ;
#159 = APPROVAL_PERSON_ORGANIZATION ( #194, #229, #116 ) ;
#160 = CARTESIAN_POINT ( 'NONE',  ( -6.349999999999999600, -6.349999999999999600, -1.500000000000000000 ) ) ;
#161 = PLANE ( 'NONE',  #147 ) ;
#162 = CC_DESIGN_PERSON_AND_ORGANIZATION_ASSIGNMENT ( #4, #42, ( #154 ) ) ;
#163 = VECTOR ( 'NONE', #168, 1000.000000000000000 ) ;
#164 = CARTESIAN_POINT ( 'NONE',  ( -6.349999999999999600, -6.349999999999999600, 1.500000000000000000 ) ) ;
#165 = LINE ( 'NONE', #85, #108 ) ;
#166 = DIRECTION ( 'NONE',  ( 0.0000000000000000000, 0.0000000000000000000, 1.000000000000000000 ) ) ;
#167 = LINE ( 'NONE', #95, #146 ) ;
#168 = DIRECTION ( 'NONE',  ( 1.000000000000000000, 0.0000000000000000000, 0.0000000000000000000 ) ) ;
#169 = LOCAL_TIME ( 9, 27, 24.00000000000000000, #79 ) ;
#170 = APPLICATION_PROTOCOL_DEFINITION ( 'international standard', 'config_control_design', 1994, #9 ) ;
#171 = AXIS2_PLACEMENT_3D ( 'NONE', #18, #166, #207 ) ;
#172 = CALENDAR_DATE ( 2017, 13, 7 ) ;
#173 = VECTOR ( 'NONE', #91, 1000.000000000000000 ) ;
#174 = ORIENTED_EDGE ( 'NONE', *, *, #65, .F. ) ;
#175 = DIRECTION ( 'NONE',  ( -0.0000000000000000000, -0.0000000000000000000, -1.000000000000000000 ) ) ;
#176 = EDGE_CURVE ( 'NONE', #144, #19, #70, .T. ) ;
#177 = DIRECTION ( 'NONE',  ( 0.0000000000000000000, 0.0000000000000000000, -1.000000000000000000 ) ) ;
#178 = LINE ( 'NONE', #235, #173 ) ;
#179 = DIRECTION ( 'NONE',  ( 0.0000000000000000000, 0.0000000000000000000, 1.000000000000000000 ) ) ;
#180 = EDGE_CURVE ( 'NONE', #83, #28, #96, .T. ) ;
#181 = PLANE ( 'NONE',  #189 ) ;
#182 = PRODUCT_DEFINITION_SHAPE ( 'NONE', 'NONE',  #154 ) ;
#183 = CARTESIAN_POINT ( 'NONE',  ( 6.349999999999999600, -6.349999999999999600, -1.500000000000000000 ) ) ;
#184 = CALENDAR_DATE ( 2017, 13, 7 ) ;
#185 = CC_DESIGN_APPROVAL ( #107, ( #232 ) ) ;
#186 = CARTESIAN_POINT ( 'NONE',  ( -6.349999999999999600, 6.349999999999999600, 1.500000000000000000 ) ) ;
#187 = UNCERTAINTY_MEASURE_WITH_UNIT (LENGTH_MEASURE( 1.000000000000000100E-005 ), #188, 'distance_accuracy_value', 'NONE');
#188 =( LENGTH_UNIT ( ) NAMED_UNIT ( * ) SI_UNIT ( .MILLI., .METRE. ) );
#189 = AXIS2_PLACEMENT_3D ( 'NONE', #224, #199, #143 ) ;
#190 = PERSON_AND_ORGANIZATION ( #113, #198 ) ;
#191 = COORDINATED_UNIVERSAL_TIME_OFFSET ( 5, 0, .BEHIND. ) ;
#192 = VERTEX_POINT ( 'NONE', #186 ) ;
#193 = CALENDAR_DATE ( 2017, 13, 7 ) ;
#194 = PERSON_AND_ORGANIZATION ( #113, #198 ) ;
#195 = CARTESIAN_POINT ( 'NONE',  ( -6.349999999999999600, -6.349999999999999600, -1.500000000000000000 ) ) ;
#196 = CC_DESIGN_PERSON_AND_ORGANIZATION_ASSIGNMENT ( #3, #137, ( #232 ) ) ;
#197 = CARTESIAN_POINT ( 'NONE',  ( 6.349999999999999600, -6.349999999999999600, -1.500000000000000000 ) ) ;
#198 = ORGANIZATION ( 'UNSPECIFIED', 'UNSPECIFIED', '' ) ;
#199 = DIRECTION ( 'NONE',  ( 0.0000000000000000000, -1.000000000000000000, 0.0000000000000000000 ) ) ;
#200 = DIRECTION ( 'NONE',  ( 0.0000000000000000000, 1.000000000000000000, 0.0000000000000000000 ) ) ;
#201 = ORIENTED_EDGE ( 'NONE', *, *, #103, .T. ) ;
#202 = PRODUCT ( 'Web Model 46067_46071', 'Web Model 46067_46071', '', ( #153 ) ) ;
#203 = CC_DESIGN_APPROVAL ( #121, ( #225 ) ) ;
#204 = LINE ( 'NONE', #221, #56 ) ;
#205 = CARTESIAN_POINT ( 'NONE',  ( -6.349999999999999600, -6.349999999999999600, -1.500000000000000000 ) ) ;
#206 = AXIS2_PLACEMENT_3D ( 'NONE', #127, #2, #55 ) ;
#207 = DIRECTION ( 'NONE',  ( 1.000000000000000000, 0.0000000000000000000, 0.0000000000000000000 ) ) ;
#208 = PERSON_AND_ORGANIZATION ( #113, #198 ) ;
#209 = LINE ( 'NONE', #17, #150 ) ;
#210 =( NAMED_UNIT ( * ) SI_UNIT ( $, .STERADIAN. ) SOLID_ANGLE_UNIT ( ) );
#211 = CC_DESIGN_PERSON_AND_ORGANIZATION_ASSIGNMENT ( #223, #135, ( #202 ) ) ;
#212 = VECTOR ( 'NONE', #149, 1000.000000000000000 ) ;
#213 = CARTESIAN_POINT ( 'NONE',  ( -6.349999999999999600, 6.349999999999999600, -1.500000000000000000 ) ) ;
#214 = COORDINATED_UNIVERSAL_TIME_OFFSET ( 5, 0, .BEHIND. ) ;
#215 = ORIENTED_EDGE ( 'NONE', *, *, #217, .T. ) ;
#216 = DIRECTION ( 'NONE',  ( -1.000000000000000000, 0.0000000000000000000, 0.0000000000000000000 ) ) ;
#217 = EDGE_CURVE ( 'NONE', #144, #83, #41, .T. ) ;
#218 = ORIENTED_EDGE ( 'NONE', *, *, #176, .T. ) ;
#219 = LINE ( 'NONE', #164, #48 ) ;
#220 = CC_DESIGN_DATE_AND_TIME_ASSIGNMENT ( #44, #80, ( #154 ) ) ;
#221 = CARTESIAN_POINT ( 'NONE',  ( 6.349999999999999600, 6.349999999999999600, 1.500000000000000000 ) ) ;
#222 = COORDINATED_UNIVERSAL_TIME_OFFSET ( 5, 0, .BEHIND. ) ;
#223 = PERSON_AND_ORGANIZATION ( #113, #198 ) ;
#224 = CARTESIAN_POINT ( 'NONE',  ( -6.349999999999999600, 6.349999999999999600, 1.500000000000000000 ) ) ;
#225 = SECURITY_CLASSIFICATION ( '', '', #27 ) ;
#226 = CARTESIAN_POINT ( 'NONE',  ( 6.349999999999999600, 6.349999999999999600, -1.500000000000000000 ) ) ;
#227 = ORIENTED_EDGE ( 'NONE', *, *, #134, .F. ) ;
#228 = MANIFOLD_SOLID_BREP ( 'Boss-Extrude1', #26 ) ;
#229 = APPROVAL ( #60, 'UNSPECIFIED' ) ;
#230 = APPROVAL_STATUS ( 'not_yet_approved' ) ;
#231 = DATE_AND_TIME ( #97, #109 ) ;
#232 = PRODUCT_DEFINITION_FORMATION_WITH_SPECIFIED_SOURCE ( 'ANY', '', #202, .NOT_KNOWN. ) ;
#233 = APPROVAL_PERSON_ORGANIZATION ( #140, #107, #101 ) ;
#234 = CALENDAR_DATE ( 2017, 13, 7 ) ;
#235 = CARTESIAN_POINT ( 'NONE',  ( -6.349999999999999600, 6.349999999999999600, 1.500000000000000000 ) ) ;
#236 = CC_DESIGN_PERSON_AND_ORGANIZATION_ASSIGNMENT ( #190, #157, ( #225 ) ) ;
#237 = CARTESIAN_POINT ( 'NONE',  ( 0.0000000000000000000, 0.0000000000000000000, 1.500000000000000000 ) ) ;
ENDSEC;
END-ISO-10303-21;
