ISO-10303-21;
HEADER;
FILE_DESCRIPTION (( 'STEP AP203' ),
    '1' );
FILE_NAME ('Web Model 66632_66632.step',
    '2018-01-04T15:17:29',
    ( '' ),
    ( '' ),
    'SwSTEP 2.0',
    'SolidWorks 2016',
    '' );
FILE_SCHEMA (( 'CONFIG_CONTROL_DESIGN' ));
ENDSEC;

DATA;
#1 = VECTOR ( 'NONE', #82, 1000.000000000000000 ) ;
#2 = EDGE_CURVE ( 'NONE', #321, #147, #89, .T. ) ;
#3 = APPROVAL_DATE_TIME ( #172, #368 ) ;
#4 = DIRECTION ( 'NONE',  ( -0.0000000000000000000, -0.0000000000000000000, -1.000000000000000000 ) ) ;
#5 = CARTESIAN_POINT ( 'NONE',  ( -12.69999999999999900, 0.0000000000000000000, 6.349999999999999600 ) ) ;
#6 = FACE_OUTER_BOUND ( 'NONE', #107, .T. ) ;
#7 = ORIENTED_EDGE ( 'NONE', *, *, #9, .F. ) ;
#8 = COORDINATED_UNIVERSAL_TIME_OFFSET ( 5, 0, .BEHIND. ) ;
#9 = EDGE_CURVE ( 'NONE', #377, #321, #185, .T. ) ;
#10 = LINE ( 'NONE', #21, #149 ) ;
#11 = AXIS2_PLACEMENT_3D ( 'NONE', #358, #273, #56 ) ;
#12 = DIRECTION ( 'NONE',  ( 0.0000000000000000000, 1.000000000000000000, 0.0000000000000000000 ) ) ;
#13 = LINE ( 'NONE', #60, #224 ) ;
#14 = ORIENTED_EDGE ( 'NONE', *, *, #54, .F. ) ;
#15 = CARTESIAN_POINT ( 'NONE',  ( -12.70412924997223000, 17.96000000000000100, 6.349999999999999600 ) ) ;
#16 = CC_DESIGN_DATE_AND_TIME_ASSIGNMENT ( #347, #341, ( #213 ) ) ;
#17 = DIRECTION ( 'NONE',  ( 0.7072562018435226700, 0.7069573289484127900, 0.0000000000000000000 ) ) ;
#18 = EDGE_CURVE ( 'NONE', #215, #370, #191, .T. ) ;
#19 = PRODUCT_DEFINITION_SHAPE ( 'NONE', 'NONE',  #79 ) ;
#20 = FACE_OUTER_BOUND ( 'NONE', #50, .T. ) ;
#21 = CARTESIAN_POINT ( 'NONE',  ( -12.69999999999999900, 0.0000000000000000000, 6.349999999999999600 ) ) ;
#22 = VERTEX_POINT ( 'NONE', #61 ) ;
#23 = PERSON_AND_ORGANIZATION ( #182, #345 ) ;
#24 = DIRECTION ( 'NONE',  ( -0.0000000000000000000, -0.0000000000000000000, -1.000000000000000000 ) ) ;
#25 = PLANE ( 'NONE',  #242 ) ;
#26 = CC_DESIGN_DATE_AND_TIME_ASSIGNMENT ( #333, #344, ( #79 ) ) ;
#27 = VERTEX_POINT ( 'NONE', #99 ) ;
#28 = PERSON_AND_ORGANIZATION ( #182, #345 ) ;
#29 = DIRECTION ( 'NONE',  ( 0.0000000000000000000, 1.000000000000000000, -0.0000000000000000000 ) ) ;
#30 = PERSON_AND_ORGANIZATION ( #182, #345 ) ;
#31 = EDGE_CURVE ( 'NONE', #377, #129, #339, .T. ) ;
#32 = PLANE ( 'NONE',  #63 ) ;
#33 = LINE ( 'NONE', #201, #145 ) ;
#34 = UNCERTAINTY_MEASURE_WITH_UNIT (LENGTH_MEASURE( 1.000000000000000100E-005 ), #240, 'distance_accuracy_value', 'NONE');
#35 = ORIENTED_EDGE ( 'NONE', *, *, #302, .T. ) ;
#36 = EDGE_CURVE ( 'NONE', #129, #234, #13, .T. ) ;
#37 = APPLICATION_CONTEXT ( 'configuration controlled 3d designs of mechanical parts and assemblies' ) ;
#38 = ORIENTED_EDGE ( 'NONE', *, *, #302, .F. ) ;
#39 = VECTOR ( 'NONE', #4, 1000.000000000000000 ) ;
#40 = EDGE_LOOP ( 'NONE', ( #331, #155, #239, #109 ) ) ;
#41 = CC_DESIGN_APPROVAL ( #368, ( #79 ) ) ;
#42 = ADVANCED_FACE ( 'NONE', ( #118 ), #127, .F. ) ;
#43 = DIRECTION ( 'NONE',  ( 0.9239366727252530400, -0.3825454545454545800, 0.0000000000000000000 ) ) ;
#44 = DIRECTION ( 'NONE',  ( 0.7069573289484127900, -0.7072562018435226700, 0.0000000000000000000 ) ) ;
#45 = EDGE_LOOP ( 'NONE', ( #353, #369, #119 ) ) ;
#46 = PLANE ( 'NONE',  #170 ) ;
#47 = PERSON_AND_ORGANIZATION ( #182, #345 ) ;
#48 = CARTESIAN_POINT ( 'NONE',  ( 0.0000000000000000000, 17.96000000000000100, 6.349999999999999600 ) ) ;
#49 = VECTOR ( 'NONE', #86, 1000.000000000000000 ) ;
#50 = EDGE_LOOP ( 'NONE', ( #214, #38, #137, #210 ) ) ;
#51 = ADVANCED_FACE ( 'NONE', ( #20 ), #32, .T. ) ;
#52 = ORIENTED_EDGE ( 'NONE', *, *, #266, .F. ) ;
#53 = EDGE_CURVE ( 'NONE', #370, #130, #364, .T. ) ;
#54 = EDGE_CURVE ( 'NONE', #269, #59, #33, .T. ) ;
#55 = CARTESIAN_POINT ( 'NONE',  ( -4.596950053942280800E-016, 12.69999999999999900, -6.349999999999999600 ) ) ;
#56 = DIRECTION ( 'NONE',  ( -1.000000000000000000, 0.0000000000000000000, 0.0000000000000000000 ) ) ;
#57 = LINE ( 'NONE', #143, #111 ) ;
#58 = ORIENTED_EDGE ( 'NONE', *, *, #31, .T. ) ;
#59 = VERTEX_POINT ( 'NONE', #378 ) ;
#60 = CARTESIAN_POINT ( 'NONE',  ( -12.70412924997223000, 17.96000000000000100, 6.349999999999999600 ) ) ;
#61 = CARTESIAN_POINT ( 'NONE',  ( -17.96379427268456300, 12.70255761076694500, 6.349999999999999600 ) ) ;
#62 = CC_DESIGN_PERSON_AND_ORGANIZATION_ASSIGNMENT ( #47, #315, ( #79 ) ) ;
#63 = AXIS2_PLACEMENT_3D ( 'NONE', #252, #12, #73 ) ;
#64 = LINE ( 'NONE', #48, #243 ) ;
#65 = ORIENTED_EDGE ( 'NONE', *, *, #374, .F. ) ;
#66 = ORIENTED_EDGE ( 'NONE', *, *, #91, .T. ) ;
#67 = EDGE_CURVE ( 'NONE', #22, #215, #100, .T. ) ;
#68 = LOCAL_TIME ( 10, 17, 29.00000000000000000, #342 ) ;
#69 = VERTEX_POINT ( 'NONE', #140 ) ;
#70 = ADVANCED_FACE ( 'NONE', ( #384 ), #108, .F. ) ;
#71 = APPROVAL_PERSON_ORGANIZATION ( #23, #264, #159 ) ;
#72 = CARTESIAN_POINT ( 'NONE',  ( 0.0000000000000000000, 0.0000000000000000000, -6.349999999999999600 ) ) ;
#73 = DIRECTION ( 'NONE',  ( 0.0000000000000000000, -0.0000000000000000000, 1.000000000000000000 ) ) ;
#74 = EDGE_CURVE ( 'NONE', #168, #27, #271, .T. ) ;
#75 = VECTOR ( 'NONE', #247, 1000.000000000000000 ) ;
#76 = ORIENTED_EDGE ( 'NONE', *, *, #120, .T. ) ;
#77 = CARTESIAN_POINT ( 'NONE',  ( -17.96379427268456300, 12.70255761076694500, 6.349999999999999600 ) ) ;
#78 = VERTEX_POINT ( 'NONE', #80 ) ;
#79 = PRODUCT_DEFINITION ( 'UNKNOWN', '', #110, #181 ) ;
#80 = CARTESIAN_POINT ( 'NONE',  ( 0.0000000000000000000, 17.96000000000000100, -6.349999999999999600 ) ) ;
#81 = AXIS2_PLACEMENT_3D ( 'NONE', #220, #157, #337 ) ;
#82 = DIRECTION ( 'NONE',  ( 1.000000000000000000, 0.0000000000000000000, 0.0000000000000000000 ) ) ;
#83 = LINE ( 'NONE', #249, #39 ) ;
#84 = FACE_OUTER_BOUND ( 'NONE', #45, .T. ) ;
#85 = ORIENTED_EDGE ( 'NONE', *, *, #225, .F. ) ;
#86 = DIRECTION ( 'NONE',  ( -3.619645711765575100E-017, 1.000000000000000000, -0.0000000000000000000 ) ) ;
#87 = CALENDAR_DATE ( 2018, 4, 1 ) ;
#88 = DIRECTION ( 'NONE',  ( 0.9238223716921413200, 0.3828214016497864500, -0.0000000000000000000 ) ) ;
#89 = LINE ( 'NONE', #246, #360 ) ;
#90 = ORIENTED_EDGE ( 'NONE', *, *, #266, .T. ) ;
#91 = EDGE_CURVE ( 'NONE', #69, #269, #180, .T. ) ;
#92 = DIRECTION ( 'NONE',  ( 0.9239366727252530400, -0.3825454545454545800, 0.0000000000000000000 ) ) ;
#93 = VECTOR ( 'NONE', #206, 1000.000000000000000 ) ;
#94 = CC_DESIGN_PERSON_AND_ORGANIZATION_ASSIGNMENT ( #28, #254, ( #110 ) ) ;
#95 = PERSON_AND_ORGANIZATION ( #182, #345 ) ;
#96 = DIRECTION ( 'NONE',  ( -0.9239366727252531500, 0.3825454545454546300, 0.0000000000000000000 ) ) ;
#97 = DIRECTION ( 'NONE',  ( 1.000000000000000000, 0.0000000000000000000, 0.0000000000000000000 ) ) ;
#98 = AXIS2_PLACEMENT_3D ( 'NONE', #72, #293, #295 ) ;
#99 = CARTESIAN_POINT ( 'NONE',  ( -12.70412924997223000, 17.96000000000000100, -6.349999999999999600 ) ) ;
#100 = LINE ( 'NONE', #375, #330 ) ;
#101 = EDGE_LOOP ( 'NONE', ( #85, #65, #114, #281 ) ) ;
#102 = CALENDAR_DATE ( 2018, 4, 1 ) ;
#103 = APPROVAL_ROLE ( '' ) ;
#104 = AXIS2_PLACEMENT_3D ( 'NONE', #166, #319, #138 ) ;
#105 = MANIFOLD_SOLID_BREP ( 'Boss-Extrude1', #141 ) ;
#106 = VECTOR ( 'NONE', #24, 1000.000000000000000 ) ;
#107 = EDGE_LOOP ( 'NONE', ( #359, #196, #52, #161 ) ) ;
#108 = PLANE ( 'NONE',  #288 ) ;
#109 = ORIENTED_EDGE ( 'NONE', *, *, #379, .T. ) ;
#110 = PRODUCT_DEFINITION_FORMATION_WITH_SPECIFIED_SOURCE ( 'ANY', '', #154, .NOT_KNOWN. ) ;
#111 = VECTOR ( 'NONE', #217, 1000.000000000000100 ) ;
#112 = VECTOR ( 'NONE', #139, 1000.000000000000000 ) ;
#113 = DIRECTION ( 'NONE',  ( -0.0000000000000000000, -0.0000000000000000000, -1.000000000000000000 ) ) ;
#114 = ORIENTED_EDGE ( 'NONE', *, *, #122, .T. ) ;
#115 = CARTESIAN_POINT ( 'NONE',  ( 0.0000000000000000000, 0.0000000000000000000, 6.349999999999999600 ) ) ;
#116 = CARTESIAN_POINT ( 'NONE',  ( -4.596950053942280800E-016, 12.69999999999999900, -6.349999999999999600 ) ) ;
#117 = DIRECTION ( 'NONE',  ( 0.0000000000000000000, 0.0000000000000000000, 1.000000000000000000 ) ) ;
#118 = FACE_OUTER_BOUND ( 'NONE', #40, .T. ) ;
#119 = ORIENTED_EDGE ( 'NONE', *, *, #2, .T. ) ;
#120 = EDGE_CURVE ( 'NONE', #198, #69, #357, .T. ) ;
#121 = FACE_OUTER_BOUND ( 'NONE', #245, .T. ) ;
#122 = EDGE_CURVE ( 'NONE', #234, #377, #250, .T. ) ;
#123 = CARTESIAN_POINT ( 'NONE',  ( -4.596950053942280800E-016, 12.69999999999999900, 6.349999999999999600 ) ) ;
#124 = PLANE ( 'NONE',  #256 ) ;
#125 = DATE_AND_TIME ( #102, #68 ) ;
#126 = DIRECTION ( 'NONE',  ( -0.0000000000000000000, -0.0000000000000000000, -1.000000000000000000 ) ) ;
#127 = PLANE ( 'NONE',  #81 ) ;
#128 = VECTOR ( 'NONE', #324, 1000.000000000000000 ) ;
#129 = VERTEX_POINT ( 'NONE', #381 ) ;
#130 = VERTEX_POINT ( 'NONE', #228 ) ;
#131 = PERSON_AND_ORGANIZATION_ROLE ( 'creator' ) ;
#132 = APPROVAL_STATUS ( 'not_yet_approved' ) ;
#133 = ADVANCED_FACE ( 'NONE', ( #84 ), #297, .T. ) ;
#134 = EDGE_CURVE ( 'NONE', #59, #22, #163, .T. ) ;
#135 = LINE ( 'NONE', #260, #1 ) ;
#136 = ADVANCED_FACE ( 'NONE', ( #218 ), #352, .F. ) ;
#137 = ORIENTED_EDGE ( 'NONE', *, *, #36, .T. ) ;
#138 = DIRECTION ( 'NONE',  ( -1.000000000000000000, 0.0000000000000000000, -0.0000000000000000000 ) ) ;
#139 = DIRECTION ( 'NONE',  ( -0.9239366727252531500, 0.3825454545454546300, -0.0000000000000000000 ) ) ;
#140 = CARTESIAN_POINT ( 'NONE',  ( 0.0000000000000000000, 0.0000000000000000000, 6.349999999999999600 ) ) ;
#141 = CLOSED_SHELL ( 'NONE', ( #42, #200, #70, #219, #227, #350, #230 ) ) ;
#142 = CARTESIAN_POINT ( 'NONE',  ( 0.0000000000000000000, 17.96000000000000100, 6.349999999999999600 ) ) ;
#143 = CARTESIAN_POINT ( 'NONE',  ( -17.96379427268456300, 12.70255761076694500, -6.349999999999999600 ) ) ;
#144 = LINE ( 'NONE', #5, #183 ) ;
#145 = VECTOR ( 'NONE', #322, 1000.000000000000000 ) ;
#146 = CARTESIAN_POINT ( 'NONE',  ( 0.0000000000000000000, 0.0000000000000000000, 6.349999999999999600 ) ) ;
#147 = VERTEX_POINT ( 'NONE', #351 ) ;
#148 = DIRECTION ( 'NONE',  ( -0.0000000000000000000, -0.0000000000000000000, -1.000000000000000000 ) ) ;
#149 = VECTOR ( 'NONE', #238, 1000.000000000000200 ) ;
#150 = ORIENTED_EDGE ( 'NONE', *, *, #36, .F. ) ;
#151 = CALENDAR_DATE ( 2018, 4, 1 ) ;
#152 = ADVANCED_BREP_SHAPE_REPRESENTATION ( 'Web Model 66632_66632', ( #105, #193, #205 ), #296 ) ;
#153 = DIRECTION ( 'NONE',  ( 8.739448771753383700E-017, 1.000000000000000000, 0.0000000000000000000 ) ) ;
#154 = PRODUCT ( 'Web Model 66632_66632', 'Web Model 66632_66632', '', ( #312 ) ) ;
#155 = ORIENTED_EDGE ( 'NONE', *, *, #197, .F. ) ;
#156 = CC_DESIGN_APPROVAL ( #253, ( #110 ) ) ;
#157 = DIRECTION ( 'NONE',  ( -1.000000000000000000, -3.619645711765575100E-017, 0.0000000000000000000 ) ) ;
#158 = AXIS2_PLACEMENT_3D ( 'NONE', #115, #29, #117 ) ;
#159 = APPROVAL_ROLE ( '' ) ;
#160 = ORIENTED_EDGE ( 'NONE', *, *, #212, .F. ) ;
#161 = ORIENTED_EDGE ( 'NONE', *, *, #67, .T. ) ;
#162 = PERSON_AND_ORGANIZATION_ROLE ( 'design_owner' ) ;
#163 = LINE ( 'NONE', #292, #318 ) ;
#164 = ORIENTED_EDGE ( 'NONE', *, *, #237, .T. ) ;
#165 = PERSON_AND_ORGANIZATION ( #182, #345 ) ;
#166 = CARTESIAN_POINT ( 'NONE',  ( 0.0000000000000000000, 0.0000000000000000000, 6.349999999999999600 ) ) ;
#167 = ORIENTED_EDGE ( 'NONE', *, *, #74, .F. ) ;
#168 = VERTEX_POINT ( 'NONE', #349 ) ;
#169 = PLANE ( 'NONE',  #310 ) ;
#170 = AXIS2_PLACEMENT_3D ( 'NONE', #178, #387, #92 ) ;
#171 = CARTESIAN_POINT ( 'NONE',  ( 0.0000000000000000000, 0.0000000000000000000, -6.349999999999999600 ) ) ;
#172 = DATE_AND_TIME ( #278, #356 ) ;
#173 = CARTESIAN_POINT ( 'NONE',  ( -4.596950053942280800E-016, 12.69999999999999900, 6.349999999999999600 ) ) ;
#174 = VECTOR ( 'NONE', #373, 1000.000000000000000 ) ;
#175 = DIRECTION ( 'NONE',  ( 1.000000000000000000, -8.739448771753383700E-017, 0.0000000000000000000 ) ) ;
#176 = LOCAL_TIME ( 10, 17, 29.00000000000000000, #241 ) ;
#177 = CARTESIAN_POINT ( 'NONE',  ( -4.596950053942280800E-016, 12.69999999999999900, 6.349999999999999600 ) ) ;
#178 = CARTESIAN_POINT ( 'NONE',  ( -4.596950053942280800E-016, 12.69999999999999900, 6.349999999999999600 ) ) ;
#179 = AXIS2_PLACEMENT_3D ( 'NONE', #304, #88, #265 ) ;
#180 = LINE ( 'NONE', #173, #93 ) ;
#181 = DESIGN_CONTEXT ( 'detailed design', #338, 'design' ) ;
#182 = PERSON ( 'UNSPECIFIED', 'UNSPECIFIED', 'UNSPECIFIED', ('UNSPECIFIED'), ('UNSPECIFIED'), ('UNSPECIFIED') ) ;
#183 = VECTOR ( 'NONE', #126, 1000.000000000000000 ) ;
#184 = CARTESIAN_POINT ( 'NONE',  ( -12.69999999999999900, 0.0000000000000000000, -6.349999999999999600 ) ) ;
#185 = LINE ( 'NONE', #123, #261 ) ;
#186 = ORIENTED_EDGE ( 'NONE', *, *, #134, .T. ) ;
#187 = CARTESIAN_POINT ( 'NONE',  ( 0.0000000000000000000, 17.96000000000000100, 6.349999999999999600 ) ) ;
#188 =( NAMED_UNIT ( * ) SI_UNIT ( $, .STERADIAN. ) SOLID_ANGLE_UNIT ( ) );
#189 = APPLICATION_PROTOCOL_DEFINITION ( 'international standard', 'config_control_design', 1994, #338 ) ;
#190 = ORIENTED_EDGE ( 'NONE', *, *, #54, .T. ) ;
#191 = LINE ( 'NONE', #184, #335 ) ;
#192 = CLOSED_SHELL ( 'NONE', ( #51, #203, #267, #136, #133 ) ) ;
#193 = MANIFOLD_SOLID_BREP ( 'Boss-Extrude2', #192 ) ;
#194 = PERSON_AND_ORGANIZATION ( #182, #345 ) ;
#195 = LINE ( 'NONE', #380, #174 ) ;
#196 = ORIENTED_EDGE ( 'NONE', *, *, #237, .F. ) ;
#197 = EDGE_CURVE ( 'NONE', #269, #168, #195, .T. ) ;
#198 = VERTEX_POINT ( 'NONE', #199 ) ;
#199 = CARTESIAN_POINT ( 'NONE',  ( -12.69999999999999900, 0.0000000000000000000, 6.349999999999999600 ) ) ;
#200 = ADVANCED_FACE ( 'NONE', ( #280 ), #169, .F. ) ;
#201 = CARTESIAN_POINT ( 'NONE',  ( -12.70412924997223000, 17.96000000000000100, 6.349999999999999600 ) ) ;
#202 = EDGE_CURVE ( 'NONE', #147, #78, #135, .T. ) ;
#203 = ADVANCED_FACE ( 'NONE', ( #376 ), #46, .T. ) ;
#204 = PRODUCT_RELATED_PRODUCT_CATEGORY ( 'detail', '', ( #154 ) ) ;
#205 = AXIS2_PLACEMENT_3D ( 'NONE', #209, #363, #97 ) ;
#206 = DIRECTION ( 'NONE',  ( -3.619645711765575100E-017, 1.000000000000000000, -0.0000000000000000000 ) ) ;
#207 = LOCAL_TIME ( 10, 17, 29.00000000000000000, #328 ) ;
#208 = PLANE ( 'NONE',  #11 ) ;
#209 = CARTESIAN_POINT ( 'NONE',  ( 0.0000000000000000000, 0.0000000000000000000, 0.0000000000000000000 ) ) ;
#210 = ORIENTED_EDGE ( 'NONE', *, *, #374, .T. ) ;
#211 = CARTESIAN_POINT ( 'NONE',  ( 0.0000000000000000000, 17.96000000000000100, -6.349999999999999600 ) ) ;
#212 = EDGE_CURVE ( 'NONE', #130, #168, #307, .T. ) ;
#213 = SECURITY_CLASSIFICATION ( '', '', #311 ) ;
#214 = ORIENTED_EDGE ( 'NONE', *, *, #202, .F. ) ;
#215 = VERTEX_POINT ( 'NONE', #355 ) ;
#216 = DIRECTION ( 'NONE',  ( -0.9239366727252531500, 0.3825454545454546300, 0.0000000000000000000 ) ) ;
#217 = DIRECTION ( 'NONE',  ( -0.7072562018435226700, -0.7069573289484127900, -0.0000000000000000000 ) ) ;
#218 = FACE_OUTER_BOUND ( 'NONE', #283, .T. ) ;
#219 = ADVANCED_FACE ( 'NONE', ( #6 ), #263, .F. ) ;
#220 = CARTESIAN_POINT ( 'NONE',  ( -4.596950053942280800E-016, 12.69999999999999900, 6.349999999999999600 ) ) ;
#221 =( NAMED_UNIT ( * ) PLANE_ANGLE_UNIT ( ) SI_UNIT ( $, .RADIAN. ) );
#222 = ORIENTED_EDGE ( 'NONE', *, *, #120, .F. ) ;
#223 = VECTOR ( 'NONE', #382, 1000.000000000000000 ) ;
#224 = VECTOR ( 'NONE', #277, 1000.000000000000000 ) ;
#225 = EDGE_CURVE ( 'NONE', #78, #321, #383, .T. ) ;
#226 = ORIENTED_EDGE ( 'NONE', *, *, #251, .F. ) ;
#227 = ADVANCED_FACE ( 'NONE', ( #121 ), #361, .F. ) ;
#228 = CARTESIAN_POINT ( 'NONE',  ( 0.0000000000000000000, 0.0000000000000000000, -6.349999999999999600 ) ) ;
#229 = DIRECTION ( 'NONE',  ( 1.000000000000000000, -0.0000000000000000000, -0.0000000000000000000 ) ) ;
#230 = ADVANCED_FACE ( 'NONE', ( #320 ), #25, .T. ) ;
#231 = DIRECTION ( 'NONE',  ( -0.3825454545454546300, -0.9239366727252531500, 0.0000000000000000000 ) ) ;
#232 = LINE ( 'NONE', #327, #75 ) ;
#233 = ORIENTED_EDGE ( 'NONE', *, *, #53, .T. ) ;
#234 = VERTEX_POINT ( 'NONE', #275 ) ;
#235 = CARTESIAN_POINT ( 'NONE',  ( -12.70412924997223000, 17.96000000000000100, -6.349999999999999600 ) ) ;
#236 = APPROVAL_DATE_TIME ( #316, #253 ) ;
#237 = EDGE_CURVE ( 'NONE', #198, #370, #144, .T. ) ;
#238 = DIRECTION ( 'NONE',  ( 0.3828214016497864000, -0.9238223716921412100, -0.0000000000000000000 ) ) ;
#239 = ORIENTED_EDGE ( 'NONE', *, *, #91, .F. ) ;
#240 =( LENGTH_UNIT ( ) NAMED_UNIT ( * ) SI_UNIT ( .MILLI., .METRE. ) );
#241 = COORDINATED_UNIVERSAL_TIME_OFFSET ( 5, 0, .BEHIND. ) ;
#242 = AXIS2_PLACEMENT_3D ( 'NONE', #299, #386, #306 ) ;
#243 = VECTOR ( 'NONE', #148, 1000.000000000000000 ) ;
#244 = ORIENTED_EDGE ( 'NONE', *, *, #251, .T. ) ;
#245 = EDGE_LOOP ( 'NONE', ( #233, #340, #222, #164 ) ) ;
#246 = CARTESIAN_POINT ( 'NONE',  ( -4.596950053942280800E-016, 12.69999999999999900, -6.349999999999999600 ) ) ;
#247 = DIRECTION ( 'NONE',  ( -0.0000000000000000000, -0.0000000000000000000, -1.000000000000000000 ) ) ;
#248 = FACE_OUTER_BOUND ( 'NONE', #101, .T. ) ;
#249 = CARTESIAN_POINT ( 'NONE',  ( -12.70412924997223000, 17.96000000000000100, 6.349999999999999600 ) ) ;
#250 = LINE ( 'NONE', #142, #128 ) ;
#251 = EDGE_CURVE ( 'NONE', #59, #27, #232, .T. ) ;
#252 = CARTESIAN_POINT ( 'NONE',  ( -12.70412924997223000, 17.96000000000000100, 6.349999999999999600 ) ) ;
#253 = APPROVAL ( #284, 'UNSPECIFIED' ) ;
#254 = PERSON_AND_ORGANIZATION_ROLE ( 'design_supplier' ) ;
#255 = ORIENTED_EDGE ( 'NONE', *, *, #53, .F. ) ;
#256 = AXIS2_PLACEMENT_3D ( 'NONE', #187, #175, #153 ) ;
#257 = EDGE_LOOP ( 'NONE', ( #385, #226, #14, #272 ) ) ;
#258 = CARTESIAN_POINT ( 'NONE',  ( 0.0000000000000000000, 0.0000000000000000000, 6.349999999999999600 ) ) ;
#259 = DIRECTION ( 'NONE',  ( 1.000000000000000000, -0.0000000000000000000, -0.0000000000000000000 ) ) ;
#260 = CARTESIAN_POINT ( 'NONE',  ( -12.70412924997223000, 17.96000000000000100, -6.349999999999999600 ) ) ;
#261 = VECTOR ( 'NONE', #305, 1000.000000000000000 ) ;
#262 = ORIENTED_EDGE ( 'NONE', *, *, #18, .F. ) ;
#263 = PLANE ( 'NONE',  #179 ) ;
#264 = APPROVAL ( #367, 'UNSPECIFIED' ) ;
#265 = DIRECTION ( 'NONE',  ( -0.3828214016497864000, 0.9238223716921412100, 0.0000000000000000000 ) ) ;
#266 = EDGE_CURVE ( 'NONE', #22, #198, #10, .T. ) ;
#267 = ADVANCED_FACE ( 'NONE', ( #248 ), #124, .T. ) ;
#268 = COORDINATED_UNIVERSAL_TIME_OFFSET ( 5, 0, .BEHIND. ) ;
#269 = VERTEX_POINT ( 'NONE', #334 ) ;
#270 = CC_DESIGN_PERSON_AND_ORGANIZATION_ASSIGNMENT ( #95, #131, ( #110 ) ) ;
#271 = LINE ( 'NONE', #235, #112 ) ;
#272 = ORIENTED_EDGE ( 'NONE', *, *, #197, .T. ) ;
#273 = DIRECTION ( 'NONE',  ( -0.0000000000000000000, 0.0000000000000000000, -1.000000000000000000 ) ) ;
#274 = DIRECTION ( 'NONE',  ( 0.3828214016497864000, -0.9238223716921412100, -0.0000000000000000000 ) ) ;
#275 = CARTESIAN_POINT ( 'NONE',  ( 0.0000000000000000000, 17.96000000000000100, 6.349999999999999600 ) ) ;
#276 = APPROVAL_ROLE ( '' ) ;
#277 = DIRECTION ( 'NONE',  ( 1.000000000000000000, 0.0000000000000000000, 0.0000000000000000000 ) ) ;
#278 = CALENDAR_DATE ( 2018, 4, 1 ) ;
#279 = PERSON_AND_ORGANIZATION_ROLE ( 'classification_officer' ) ;
#280 = FACE_OUTER_BOUND ( 'NONE', #257, .T. ) ;
#281 = ORIENTED_EDGE ( 'NONE', *, *, #9, .T. ) ;
#282 = CARTESIAN_POINT ( 'NONE',  ( -4.596950053942280800E-016, 12.69999999999999900, 6.349999999999999600 ) ) ;
#283 = EDGE_LOOP ( 'NONE', ( #150, #291, #308 ) ) ;
#284 = APPROVAL_STATUS ( 'not_yet_approved' ) ;
#285 = APPLICATION_PROTOCOL_DEFINITION ( 'international standard', 'config_control_design', 1994, #37 ) ;
#286 = SHAPE_DEFINITION_REPRESENTATION ( #19, #152 ) ;
#287 = CALENDAR_DATE ( 2018, 4, 1 ) ;
#288 = AXIS2_PLACEMENT_3D ( 'NONE', #77, #44, #17 ) ;
#289 = VECTOR ( 'NONE', #229, 1000.000000000000000 ) ;
#290 = ORIENTED_EDGE ( 'NONE', *, *, #343, .T. ) ;
#291 = ORIENTED_EDGE ( 'NONE', *, *, #31, .F. ) ;
#292 = CARTESIAN_POINT ( 'NONE',  ( -17.96379427268456300, 12.70255761076694500, 6.349999999999999600 ) ) ;
#293 = DIRECTION ( 'NONE',  ( 0.0000000000000000000, 0.0000000000000000000, -1.000000000000000000 ) ) ;
#294 = CC_DESIGN_PERSON_AND_ORGANIZATION_ASSIGNMENT ( #325, #162, ( #154 ) ) ;
#295 = DIRECTION ( 'NONE',  ( -1.000000000000000000, 0.0000000000000000000, -0.0000000000000000000 ) ) ;
#296 =( GEOMETRIC_REPRESENTATION_CONTEXT ( 3 ) GLOBAL_UNCERTAINTY_ASSIGNED_CONTEXT ( ( #34 ) ) GLOBAL_UNIT_ASSIGNED_CONTEXT ( ( #240, #221, #188 ) ) REPRESENTATION_CONTEXT ( 'NONE', 'WORKASPACE' ) );
#297 = PLANE ( 'NONE',  #98 ) ;
#298 = LOCAL_TIME ( 10, 17, 29.00000000000000000, #8 ) ;
#299 = CARTESIAN_POINT ( 'NONE',  ( 0.0000000000000000000, 0.0000000000000000000, -6.349999999999999600 ) ) ;
#300 = ORIENTED_EDGE ( 'NONE', *, *, #67, .F. ) ;
#301 = ORIENTED_EDGE ( 'NONE', *, *, #343, .F. ) ;
#302 = EDGE_CURVE ( 'NONE', #129, #147, #83, .T. ) ;
#303 = EDGE_LOOP ( 'NONE', ( #160, #255, #262, #301, #167 ) ) ;
#304 = CARTESIAN_POINT ( 'NONE',  ( -12.69999999999999900, 0.0000000000000000000, 6.349999999999999600 ) ) ;
#305 = DIRECTION ( 'NONE',  ( -0.0000000000000000000, -0.0000000000000000000, -1.000000000000000000 ) ) ;
#306 = DIRECTION ( 'NONE',  ( -1.000000000000000000, 0.0000000000000000000, 0.0000000000000000000 ) ) ;
#307 = LINE ( 'NONE', #116, #49 ) ;
#308 = ORIENTED_EDGE ( 'NONE', *, *, #122, .F. ) ;
#309 = EDGE_LOOP ( 'NONE', ( #66, #190, #186, #90, #76 ) ) ;
#310 = AXIS2_PLACEMENT_3D ( 'NONE', #15, #231, #43 ) ;
#311 = SECURITY_CLASSIFICATION_LEVEL ( 'unclassified' ) ;
#312 = MECHANICAL_CONTEXT ( 'NONE', #37, 'mechanical' ) ;
#313 = CC_DESIGN_PERSON_AND_ORGANIZATION_ASSIGNMENT ( #165, #279, ( #213 ) ) ;
#314 = EDGE_LOOP ( 'NONE', ( #290, #300, #365, #244 ) ) ;
#315 = PERSON_AND_ORGANIZATION_ROLE ( 'creator' ) ;
#316 = DATE_AND_TIME ( #87, #176 ) ;
#317 = LINE ( 'NONE', #146, #106 ) ;
#318 = VECTOR ( 'NONE', #323, 1000.000000000000100 ) ;
#319 = DIRECTION ( 'NONE',  ( 0.0000000000000000000, 0.0000000000000000000, -1.000000000000000000 ) ) ;
#320 = FACE_OUTER_BOUND ( 'NONE', #303, .T. ) ;
#321 = VERTEX_POINT ( 'NONE', #55 ) ;
#322 = DIRECTION ( 'NONE',  ( -0.9239366727252531500, 0.3825454545454546300, -0.0000000000000000000 ) ) ;
#323 = DIRECTION ( 'NONE',  ( -0.7072562018435226700, -0.7069573289484127900, -0.0000000000000000000 ) ) ;
#324 = DIRECTION ( 'NONE',  ( -8.739448771753383700E-017, -1.000000000000000000, 0.0000000000000000000 ) ) ;
#325 = PERSON_AND_ORGANIZATION ( #182, #345 ) ;
#326 = ORIENTED_EDGE ( 'NONE', *, *, #2, .F. ) ;
#327 = CARTESIAN_POINT ( 'NONE',  ( -12.70412924997223000, 17.96000000000000100, 6.349999999999999600 ) ) ;
#328 = COORDINATED_UNIVERSAL_TIME_OFFSET ( 5, 0, .BEHIND. ) ;
#329 = CARTESIAN_POINT ( 'NONE',  ( -12.69999999999999900, 0.0000000000000000000, -6.349999999999999600 ) ) ;
#330 = VECTOR ( 'NONE', #113, 1000.000000000000000 ) ;
#331 = ORIENTED_EDGE ( 'NONE', *, *, #212, .T. ) ;
#332 = CC_DESIGN_SECURITY_CLASSIFICATION ( #213, ( #110 ) ) ;
#333 = DATE_AND_TIME ( #287, #298 ) ;
#334 = CARTESIAN_POINT ( 'NONE',  ( -4.596950053942280800E-016, 12.69999999999999900, 6.349999999999999600 ) ) ;
#335 = VECTOR ( 'NONE', #274, 1000.000000000000200 ) ;
#336 = APPROVAL_PERSON_ORGANIZATION ( #30, #253, #276 ) ;
#337 = DIRECTION ( 'NONE',  ( 3.619645711765575100E-017, -1.000000000000000000, 0.0000000000000000000 ) ) ;
#338 = APPLICATION_CONTEXT ( 'configuration controlled 3d designs of mechanical parts and assemblies' ) ;
#339 = LINE ( 'NONE', #282, #346 ) ;
#340 = ORIENTED_EDGE ( 'NONE', *, *, #379, .F. ) ;
#341 = DATE_TIME_ROLE ( 'classification_date' ) ;
#342 = COORDINATED_UNIVERSAL_TIME_OFFSET ( 5, 0, .BEHIND. ) ;
#343 = EDGE_CURVE ( 'NONE', #27, #215, #57, .T. ) ;
#344 = DATE_TIME_ROLE ( 'creation_date' ) ;
#345 = ORGANIZATION ( 'UNSPECIFIED', 'UNSPECIFIED', '' ) ;
#346 = VECTOR ( 'NONE', #96, 1000.000000000000000 ) ;
#347 = DATE_AND_TIME ( #151, #207 ) ;
#348 = APPROVAL_PERSON_ORGANIZATION ( #194, #368, #103 ) ;
#349 = CARTESIAN_POINT ( 'NONE',  ( -4.596950053942280800E-016, 12.69999999999999900, -6.349999999999999600 ) ) ;
#350 = ADVANCED_FACE ( 'NONE', ( #371 ), #208, .F. ) ;
#351 = CARTESIAN_POINT ( 'NONE',  ( -12.70412924997223000, 17.96000000000000100, -6.349999999999999600 ) ) ;
#352 = PLANE ( 'NONE',  #104 ) ;
#353 = ORIENTED_EDGE ( 'NONE', *, *, #202, .T. ) ;
#354 = APPROVAL_DATE_TIME ( #125, #264 ) ;
#355 = CARTESIAN_POINT ( 'NONE',  ( -17.96379427268456300, 12.70255761076694500, -6.349999999999999600 ) ) ;
#356 = LOCAL_TIME ( 10, 17, 29.00000000000000000, #268 ) ;
#357 = LINE ( 'NONE', #258, #372 ) ;
#358 = CARTESIAN_POINT ( 'NONE',  ( 0.0000000000000000000, 0.0000000000000000000, 6.349999999999999600 ) ) ;
#359 = ORIENTED_EDGE ( 'NONE', *, *, #18, .T. ) ;
#360 = VECTOR ( 'NONE', #216, 1000.000000000000000 ) ;
#361 = PLANE ( 'NONE',  #158 ) ;
#362 = CC_DESIGN_APPROVAL ( #264, ( #213 ) ) ;
#363 = DIRECTION ( 'NONE',  ( 0.0000000000000000000, 0.0000000000000000000, 1.000000000000000000 ) ) ;
#364 = LINE ( 'NONE', #171, #289 ) ;
#365 = ORIENTED_EDGE ( 'NONE', *, *, #134, .F. ) ;
#366 = EDGE_LOOP ( 'NONE', ( #326, #7, #58, #35 ) ) ;
#367 = APPROVAL_STATUS ( 'not_yet_approved' ) ;
#368 = APPROVAL ( #132, 'UNSPECIFIED' ) ;
#369 = ORIENTED_EDGE ( 'NONE', *, *, #225, .T. ) ;
#370 = VERTEX_POINT ( 'NONE', #329 ) ;
#371 = FACE_OUTER_BOUND ( 'NONE', #309, .T. ) ;
#372 = VECTOR ( 'NONE', #259, 1000.000000000000000 ) ;
#373 = DIRECTION ( 'NONE',  ( -0.0000000000000000000, -0.0000000000000000000, -1.000000000000000000 ) ) ;
#374 = EDGE_CURVE ( 'NONE', #234, #78, #64, .T. ) ;
#375 = CARTESIAN_POINT ( 'NONE',  ( -17.96379427268456300, 12.70255761076694500, 6.349999999999999600 ) ) ;
#376 = FACE_OUTER_BOUND ( 'NONE', #366, .T. ) ;
#377 = VERTEX_POINT ( 'NONE', #177 ) ;
#378 = CARTESIAN_POINT ( 'NONE',  ( -12.70412924997223000, 17.96000000000000100, 6.349999999999999600 ) ) ;
#379 = EDGE_CURVE ( 'NONE', #69, #130, #317, .T. ) ;
#380 = CARTESIAN_POINT ( 'NONE',  ( -4.596950053942280800E-016, 12.69999999999999900, 6.349999999999999600 ) ) ;
#381 = CARTESIAN_POINT ( 'NONE',  ( -12.70412924997223000, 17.96000000000000100, 6.349999999999999600 ) ) ;
#382 = DIRECTION ( 'NONE',  ( -8.739448771753383700E-017, -1.000000000000000000, 0.0000000000000000000 ) ) ;
#383 = LINE ( 'NONE', #211, #223 ) ;
#384 = FACE_OUTER_BOUND ( 'NONE', #314, .T. ) ;
#385 = ORIENTED_EDGE ( 'NONE', *, *, #74, .T. ) ;
#386 = DIRECTION ( 'NONE',  ( -0.0000000000000000000, 0.0000000000000000000, -1.000000000000000000 ) ) ;
#387 = DIRECTION ( 'NONE',  ( -0.3825454545454546300, -0.9239366727252531500, 0.0000000000000000000 ) ) ;
ENDSEC;
END-ISO-10303-21;
