ISO-10303-21;
HEADER;
FILE_DESCRIPTION (( 'STEP AP203' ),
    '1' );
FILE_NAME ('Web Model 11876_11891.step',
    '2019-01-02T18:26:13',
    ( '' ),
    ( '' ),
    'SwSTEP 2.0',
    'SolidWorks 2016',
    '' );
FILE_SCHEMA (( 'CONFIG_CONTROL_DESIGN' ));
ENDSEC;

DATA;
#1 = PERSON_AND_ORGANIZATION_ROLE ( 'creator' ) ;
#2 = CALENDAR_DATE ( 2019, 2, 1 ) ;
#3 = CIRCLE ( 'NONE', #246, 12.45000000000000300 ) ;
#4 = EDGE_LOOP ( 'NONE', ( #17, #16, #175, #97 ) ) ;
#5 = CARTESIAN_POINT ( 'NONE',  ( -0.4500000000000002900, 0.0000000000000000000, 0.0000000000000000000 ) ) ;
#6 = ORIENTED_EDGE ( 'NONE', *, *, #187, .F. ) ;
#7 = CARTESIAN_POINT ( 'NONE',  ( 0.5000000000000000000, 0.0000000000000000000, 12.45000000000000300 ) ) ;
#8 = EDGE_CURVE ( 'NONE', #91, #273, #20, .T. ) ;
#9 = EDGE_CURVE ( 'NONE', #244, #154, #222, .T. ) ;
#10 = ORIENTED_EDGE ( 'NONE', *, *, #187, .T. ) ;
#11 = DIRECTION ( 'NONE',  ( -1.000000000000000000, -0.0000000000000000000, -0.0000000000000000000 ) ) ;
#12 = AXIS2_PLACEMENT_3D ( 'NONE', #194, #266, #159 ) ;
#13 = CARTESIAN_POINT ( 'NONE',  ( -0.5000000000000000000, 0.0000000000000000000, 0.0000000000000000000 ) ) ;
#14 = FACE_OUTER_BOUND ( 'NONE', #4, .T. ) ;
#15 = CC_DESIGN_PERSON_AND_ORGANIZATION_ASSIGNMENT ( #227, #157, ( #87 ) ) ;
#16 = ORIENTED_EDGE ( 'NONE', *, *, #77, .T. ) ;
#17 = ORIENTED_EDGE ( 'NONE', *, *, #236, .F. ) ;
#18 = CARTESIAN_POINT ( 'NONE',  ( -0.5000000000000000000, 0.0000000000000000000, 0.0000000000000000000 ) ) ;
#19 = PRODUCT ( 'Web Model 11876_11891', 'Web Model 11876_11891', '', ( #108 ) ) ;
#20 = LINE ( 'NONE', #71, #216 ) ;
#21 = COORDINATED_UNIVERSAL_TIME_OFFSET ( 5, 0, .BEHIND. ) ;
#22 = PERSON_AND_ORGANIZATION_ROLE ( 'classification_officer' ) ;
#23 = AXIS2_PLACEMENT_3D ( 'NONE', #38, #268, #60 ) ;
#24 = DATE_AND_TIME ( #230, #80 ) ;
#25 = FACE_OUTER_BOUND ( 'NONE', #252, .T. ) ;
#26 = AXIS2_PLACEMENT_3D ( 'NONE', #76, #173, #253 ) ;
#27 = AXIS2_PLACEMENT_3D ( 'NONE', #32, #190, #119 ) ;
#28 = EDGE_LOOP ( 'NONE', ( #211, #174, #263, #69 ) ) ;
#29 = CC_DESIGN_APPROVAL ( #113, ( #98 ) ) ;
#30 = DIRECTION ( 'NONE',  ( 0.0000000000000000000, 0.0000000000000000000, -1.000000000000000000 ) ) ;
#31 = ORIENTED_EDGE ( 'NONE', *, *, #65, .T. ) ;
#32 = CARTESIAN_POINT ( 'NONE',  ( -0.4500000000000002900, 0.0000000000000000000, 0.0000000000000000000 ) ) ;
#33 = ADVANCED_FACE ( 'NONE', ( #158 ), #213, .T. ) ;
#34 = DIRECTION ( 'NONE',  ( 0.7071067811865597900, 8.659560562354782500E-017, 0.7071067811865352500 ) ) ;
#35 = CC_DESIGN_DATE_AND_TIME_ASSIGNMENT ( #149, #133, ( #207 ) ) ;
#36 = DIRECTION ( 'NONE',  ( 1.000000000000000000, -0.0000000000000000000, -0.0000000000000000000 ) ) ;
#37 = CARTESIAN_POINT ( 'NONE',  ( 0.5000000000000000000, 0.0000000000000000000, 0.0000000000000000000 ) ) ;
#38 = CARTESIAN_POINT ( 'NONE',  ( 0.0000000000000000000, 0.0000000000000000000, 0.0000000000000000000 ) ) ;
#39 = CC_DESIGN_DATE_AND_TIME_ASSIGNMENT ( #52, #59, ( #98 ) ) ;
#40 =( NAMED_UNIT ( * ) PLANE_ANGLE_UNIT ( ) SI_UNIT ( $, .RADIAN. ) );
#41 = APPROVAL ( #203, 'UNSPECIFIED' ) ;
#42 = PERSON_AND_ORGANIZATION_ROLE ( 'design_supplier' ) ;
#43 = APPROVAL_ROLE ( '' ) ;
#44 = ORGANIZATION ( 'UNSPECIFIED', 'UNSPECIFIED', '' ) ;
#45 = CC_DESIGN_PERSON_AND_ORGANIZATION_ASSIGNMENT ( #239, #42, ( #87 ) ) ;
#46 = VERTEX_POINT ( 'NONE', #212 ) ;
#47 = LINE ( 'NONE', #197, #130 ) ;
#48 = EDGE_LOOP ( 'NONE', ( #136, #63, #111, #148 ) ) ;
#49 = DIRECTION ( 'NONE',  ( 1.000000000000000000, -0.0000000000000000000, -0.0000000000000000000 ) ) ;
#50 = CC_DESIGN_PERSON_AND_ORGANIZATION_ASSIGNMENT ( #72, #22, ( #98 ) ) ;
#51 = DIRECTION ( 'NONE',  ( -1.000000000000000000, 0.0000000000000000000, 0.0000000000000000000 ) ) ;
#52 = DATE_AND_TIME ( #116, #180 ) ;
#53 = AXIS2_PLACEMENT_3D ( 'NONE', #146, #54, #269 ) ;
#54 = DIRECTION ( 'NONE',  ( 1.000000000000000000, 0.0000000000000000000, 0.0000000000000000000 ) ) ;
#55 = DIRECTION ( 'NONE',  ( -1.000000000000000000, -0.0000000000000000000, -0.0000000000000000000 ) ) ;
#56 = CC_DESIGN_SECURITY_CLASSIFICATION ( #98, ( #87 ) ) ;
#57 = DIRECTION ( 'NONE',  ( 0.0000000000000000000, 0.0000000000000000000, -1.000000000000000000 ) ) ;
#58 = VERTEX_POINT ( 'NONE', #99 ) ;
#59 = DATE_TIME_ROLE ( 'classification_date' ) ;
#60 = DIRECTION ( 'NONE',  ( 1.000000000000000000, 0.0000000000000000000, 0.0000000000000000000 ) ) ;
#61 = APPLICATION_CONTEXT ( 'configuration controlled 3d designs of mechanical parts and assemblies' ) ;
#62 = APPROVAL_DATE_TIME ( #101, #113 ) ;
#63 = ORIENTED_EDGE ( 'NONE', *, *, #242, .F. ) ;
#64 = PRODUCT_RELATED_PRODUCT_CATEGORY ( 'detail', '', ( #19 ) ) ;
#65 = EDGE_CURVE ( 'NONE', #89, #88, #85, .T. ) ;
#66 = CIRCLE ( 'NONE', #12, 12.45000000000000300 ) ;
#67 = PERSON_AND_ORGANIZATION ( #267, #44 ) ;
#68 = CONICAL_SURFACE ( 'NONE', #79, 12.50000000000000000, 0.7853981633974309600 ) ;
#69 = ORIENTED_EDGE ( 'NONE', *, *, #182, .F. ) ;
#70 = CONICAL_SURFACE ( 'NONE', #84, 12.50000000000000000, 0.7853981633974309600 ) ;
#71 = CARTESIAN_POINT ( 'NONE',  ( -0.4500000000000002900, 1.530808498934191500E-015, 12.50000000000000000 ) ) ;
#72 = PERSON_AND_ORGANIZATION ( #267, #44 ) ;
#73 = DIRECTION ( 'NONE',  ( 0.0000000000000000000, 0.0000000000000000000, 1.000000000000000000 ) ) ;
#74 = AXIS2_PLACEMENT_3D ( 'NONE', #37, #272, #177 ) ;
#75 = UNCERTAINTY_MEASURE_WITH_UNIT (LENGTH_MEASURE( 1.000000000000000100E-005 ), #179, 'distance_accuracy_value', 'NONE');
#76 = CARTESIAN_POINT ( 'NONE',  ( 0.5000000000000000000, 0.0000000000000000000, 0.0000000000000000000 ) ) ;
#77 = EDGE_CURVE ( 'NONE', #154, #88, #260, .T. ) ;
#78 = CARTESIAN_POINT ( 'NONE',  ( 0.5000000000000000000, 1.530808498934191500E-015, -12.50000000000000000 ) ) ;
#79 = AXIS2_PLACEMENT_3D ( 'NONE', #5, #191, #165 ) ;
#80 = LOCAL_TIME ( 13, 26, 13.00000000000000000, #129 ) ;
#81 = APPLICATION_CONTEXT ( 'configuration controlled 3d designs of mechanical parts and assemblies' ) ;
#82 = ORIENTED_EDGE ( 'NONE', *, *, #9, .T. ) ;
#83 = CALENDAR_DATE ( 2019, 2, 1 ) ;
#84 = AXIS2_PLACEMENT_3D ( 'NONE', #251, #36, #57 ) ;
#85 = LINE ( 'NONE', #7, #250 ) ;
#86 = ORIENTED_EDGE ( 'NONE', *, *, #125, .T. ) ;
#87 = PRODUCT_DEFINITION_FORMATION_WITH_SPECIFIED_SOURCE ( 'ANY', '', #19, .NOT_KNOWN. ) ;
#88 = VERTEX_POINT ( 'NONE', #193 ) ;
#89 = VERTEX_POINT ( 'NONE', #209 ) ;
#90 = COORDINATED_UNIVERSAL_TIME_OFFSET ( 5, 0, .BEHIND. ) ;
#91 = VERTEX_POINT ( 'NONE', #247 ) ;
#92 = DESIGN_CONTEXT ( 'detailed design', #61, 'design' ) ;
#93 = APPROVAL ( #131, 'UNSPECIFIED' ) ;
#94 = LOCAL_TIME ( 13, 26, 13.00000000000000000, #184 ) ;
#95 = CARTESIAN_POINT ( 'NONE',  ( 0.5000000000000000000, 1.524685264938455200E-015, -12.45000000000000300 ) ) ;
#96 = DIRECTION ( 'NONE',  ( -1.000000000000000000, -0.0000000000000000000, -0.0000000000000000000 ) ) ;
#97 = ORIENTED_EDGE ( 'NONE', *, *, #172, .T. ) ;
#98 = SECURITY_CLASSIFICATION ( '', '', #134 ) ;
#99 = CARTESIAN_POINT ( 'NONE',  ( -0.5000000000000000000, 0.0000000000000000000, -12.45000000000000300 ) ) ;
#100 = AXIS2_PLACEMENT_3D ( 'NONE', #13, #169, #171 ) ;
#101 = DATE_AND_TIME ( #205, #94 ) ;
#102 = DIRECTION ( 'NONE',  ( -1.000000000000000000, 0.0000000000000000000, 0.0000000000000000000 ) ) ;
#103 = AXIS2_PLACEMENT_3D ( 'NONE', #226, #96, #73 ) ;
#104 = CARTESIAN_POINT ( 'NONE',  ( -0.4500000000000002900, 0.0000000000000000000, -12.50000000000000000 ) ) ;
#105 = EDGE_CURVE ( 'NONE', #91, #58, #66, .T. ) ;
#106 = APPROVAL_ROLE ( '' ) ;
#107 = CIRCLE ( 'NONE', #233, 12.45000000000000300 ) ;
#108 = MECHANICAL_CONTEXT ( 'NONE', #81, 'mechanical' ) ;
#109 = EDGE_LOOP ( 'NONE', ( #138, #261 ) ) ;
#110 = APPROVAL_STATUS ( 'not_yet_approved' ) ;
#111 = ORIENTED_EDGE ( 'NONE', *, *, #182, .T. ) ;
#112 = PERSON_AND_ORGANIZATION_ROLE ( 'design_owner' ) ;
#113 = APPROVAL ( #110, 'UNSPECIFIED' ) ;
#114 = ORIENTED_EDGE ( 'NONE', *, *, #275, .T. ) ;
#115 = LINE ( 'NONE', #78, #237 ) ;
#116 = CALENDAR_DATE ( 2019, 2, 1 ) ;
#117 = FACE_OUTER_BOUND ( 'NONE', #48, .T. ) ;
#118 = ORIENTED_EDGE ( 'NONE', *, *, #9, .F. ) ;
#119 = DIRECTION ( 'NONE',  ( 0.0000000000000000000, 0.0000000000000000000, -1.000000000000000000 ) ) ;
#120 = PERSON_AND_ORGANIZATION ( #267, #44 ) ;
#121 = CARTESIAN_POINT ( 'NONE',  ( 0.5000000000000000000, 0.0000000000000000000, 0.0000000000000000000 ) ) ;
#122 = ADVANCED_FACE ( 'NONE', ( #140 ), #68, .T. ) ;
#123 = DIRECTION ( 'NONE',  ( -0.7071067811865107100, 8.659560562355384000E-017, -0.7071067811865843200 ) ) ;
#124 = ADVANCED_FACE ( 'NONE', ( #147 ), #186, .T. ) ;
#125 = EDGE_CURVE ( 'NONE', #46, #273, #135, .T. ) ;
#126 = CIRCLE ( 'NONE', #219, 12.50000000000000000 ) ;
#127 = DIRECTION ( 'NONE',  ( 1.000000000000000000, 0.0000000000000000000, 0.0000000000000000000 ) ) ;
#128 = EDGE_LOOP ( 'NONE', ( #6, #82, #188, #232 ) ) ;
#129 = COORDINATED_UNIVERSAL_TIME_OFFSET ( 5, 0, .BEHIND. ) ;
#130 = VECTOR ( 'NONE', #11, 1000.000000000000000 ) ;
#131 = APPROVAL_STATUS ( 'not_yet_approved' ) ;
#132 = DATE_AND_TIME ( #2, #249 ) ;
#133 = DATE_TIME_ROLE ( 'creation_date' ) ;
#134 = SECURITY_CLASSIFICATION_LEVEL ( 'unclassified' ) ;
#135 = CIRCLE ( 'NONE', #27, 12.50000000000000000 ) ;
#136 = ORIENTED_EDGE ( 'NONE', *, *, #8, .F. ) ;
#137 = CYLINDRICAL_SURFACE ( 'NONE', #74, 12.50000000000000000 ) ;
#138 = ORIENTED_EDGE ( 'NONE', *, *, #242, .T. ) ;
#139 = CC_DESIGN_PERSON_AND_ORGANIZATION_ASSIGNMENT ( #120, #1, ( #207 ) ) ;
#140 = FACE_OUTER_BOUND ( 'NONE', #28, .T. ) ;
#141 = PERSON_AND_ORGANIZATION ( #267, #44 ) ;
#142 = DIRECTION ( 'NONE',  ( -1.000000000000000000, 0.0000000000000000000, 0.0000000000000000000 ) ) ;
#143 = VECTOR ( 'NONE', #196, 1000.000000000000000 ) ;
#144 = CARTESIAN_POINT ( 'NONE',  ( 0.5000000000000000000, 0.0000000000000000000, 0.0000000000000000000 ) ) ;
#145 = DIRECTION ( 'NONE',  ( 0.0000000000000000000, 0.0000000000000000000, -1.000000000000000000 ) ) ;
#146 = CARTESIAN_POINT ( 'NONE',  ( 0.5000000000000000000, 0.0000000000000000000, 0.0000000000000000000 ) ) ;
#147 = FACE_OUTER_BOUND ( 'NONE', #128, .T. ) ;
#148 = ORIENTED_EDGE ( 'NONE', *, *, #172, .F. ) ;
#149 = DATE_AND_TIME ( #83, #206 ) ;
#150 = CARTESIAN_POINT ( 'NONE',  ( 0.5000000000000000000, 0.0000000000000000000, 0.0000000000000000000 ) ) ;
#151 = DIRECTION ( 'NONE',  ( 0.0000000000000000000, 0.0000000000000000000, -1.000000000000000000 ) ) ;
#152 = CC_DESIGN_APPROVAL ( #41, ( #207 ) ) ;
#153 = ORIENTED_EDGE ( 'NONE', *, *, #248, .F. ) ;
#154 = VERTEX_POINT ( 'NONE', #192 ) ;
#155 = COORDINATED_UNIVERSAL_TIME_OFFSET ( 5, 0, .BEHIND. ) ;
#156 = CIRCLE ( 'NONE', #53, 12.45000000000000300 ) ;
#157 = PERSON_AND_ORGANIZATION_ROLE ( 'creator' ) ;
#158 = FACE_OUTER_BOUND ( 'NONE', #257, .T. ) ;
#159 = DIRECTION ( 'NONE',  ( 0.0000000000000000000, 0.0000000000000000000, -1.000000000000000000 ) ) ;
#160 = AXIS2_PLACEMENT_3D ( 'NONE', #215, #102, #178 ) ;
#161 = CARTESIAN_POINT ( 'NONE',  ( 0.4500000000000072300, 0.0000000000000000000, 0.0000000000000000000 ) ) ;
#162 = ORIENTED_EDGE ( 'NONE', *, *, #238, .F. ) ;
#163 = PERSON_AND_ORGANIZATION ( #267, #44 ) ;
#164 = CARTESIAN_POINT ( 'NONE',  ( -0.4500000000000002900, 0.0000000000000000000, 0.0000000000000000000 ) ) ;
#165 = DIRECTION ( 'NONE',  ( 0.0000000000000000000, 0.0000000000000000000, -1.000000000000000000 ) ) ;
#166 = DIRECTION ( 'NONE',  ( -0.7071067811865107100, 0.0000000000000000000, 0.7071067811865843200 ) ) ;
#167 = CARTESIAN_POINT ( 'NONE',  ( 0.5000000000000000000, 1.527746881936323400E-015, -12.45000000000000300 ) ) ;
#168 = SHAPE_DEFINITION_REPRESENTATION ( #223, #185 ) ;
#169 = DIRECTION ( 'NONE',  ( 1.000000000000000000, 0.0000000000000000000, 0.0000000000000000000 ) ) ;
#170 =( GEOMETRIC_REPRESENTATION_CONTEXT ( 3 ) GLOBAL_UNCERTAINTY_ASSIGNED_CONTEXT ( ( #75 ) ) GLOBAL_UNIT_ASSIGNED_CONTEXT ( ( #179, #40, #200 ) ) REPRESENTATION_CONTEXT ( 'NONE', 'WORKASPACE' ) );
#171 = DIRECTION ( 'NONE',  ( 0.0000000000000000000, 0.0000000000000000000, -1.000000000000000000 ) ) ;
#172 = EDGE_CURVE ( 'NONE', #273, #46, #126, .T. ) ;
#173 = DIRECTION ( 'NONE',  ( -1.000000000000000000, 0.0000000000000000000, 0.0000000000000000000 ) ) ;
#174 = ORIENTED_EDGE ( 'NONE', *, *, #8, .T. ) ;
#175 = ORIENTED_EDGE ( 'NONE', *, *, #238, .T. ) ;
#176 = ADVANCED_FACE ( 'NONE', ( #14 ), #274, .T. ) ;
#177 = DIRECTION ( 'NONE',  ( 0.0000000000000000000, 0.0000000000000000000, 1.000000000000000000 ) ) ;
#178 = DIRECTION ( 'NONE',  ( 0.0000000000000000000, 0.0000000000000000000, -1.000000000000000000 ) ) ;
#179 =( LENGTH_UNIT ( ) NAMED_UNIT ( * ) SI_UNIT ( .MILLI., .METRE. ) );
#180 = LOCAL_TIME ( 13, 26, 13.00000000000000000, #21 ) ;
#181 = CIRCLE ( 'NONE', #160, 12.50000000000000000 ) ;
#182 = EDGE_CURVE ( 'NONE', #58, #46, #234, .T. ) ;
#183 = AXIS2_PLACEMENT_3D ( 'NONE', #161, #142, #30 ) ;
#184 = COORDINATED_UNIVERSAL_TIME_OFFSET ( 5, 0, .BEHIND. ) ;
#185 = ADVANCED_BREP_SHAPE_REPRESENTATION ( 'Web Model 11876_11891', ( #228, #23 ), #170 ) ;
#186 = CONICAL_SURFACE ( 'NONE', #204, 12.45000000000000300, 0.7853981633975003500 ) ;
#187 = EDGE_CURVE ( 'NONE', #244, #89, #156, .T. ) ;
#188 = ORIENTED_EDGE ( 'NONE', *, *, #275, .F. ) ;
#189 = CLOSED_SHELL ( 'NONE', ( #122, #124, #270, #176, #33, #214, #254, #198 ) ) ;
#190 = DIRECTION ( 'NONE',  ( 1.000000000000000000, -0.0000000000000000000, -0.0000000000000000000 ) ) ;
#191 = DIRECTION ( 'NONE',  ( 1.000000000000000000, -0.0000000000000000000, -0.0000000000000000000 ) ) ;
#192 = CARTESIAN_POINT ( 'NONE',  ( 0.4500000000000072300, 1.530808498934191500E-015, -12.50000000000000000 ) ) ;
#193 = CARTESIAN_POINT ( 'NONE',  ( 0.4500000000000072300, 0.0000000000000000000, 12.50000000000000000 ) ) ;
#194 = CARTESIAN_POINT ( 'NONE',  ( -0.5000000000000000000, 0.0000000000000000000, 0.0000000000000000000 ) ) ;
#195 = DIRECTION ( 'NONE',  ( -1.000000000000000000, -0.0000000000000000000, -0.0000000000000000000 ) ) ;
#196 = DIRECTION ( 'NONE',  ( 0.7071067811865597900, 0.0000000000000000000, -0.7071067811865352500 ) ) ;
#197 = CARTESIAN_POINT ( 'NONE',  ( 0.5000000000000000000, 0.0000000000000000000, 12.50000000000000000 ) ) ;
#198 = ADVANCED_FACE ( 'NONE', ( #117 ), #70, .T. ) ;
#199 = ORIENTED_EDGE ( 'NONE', *, *, #236, .T. ) ;
#200 =( NAMED_UNIT ( * ) SI_UNIT ( $, .STERADIAN. ) SOLID_ANGLE_UNIT ( ) );
#201 = APPROVAL_ROLE ( '' ) ;
#202 = APPLICATION_PROTOCOL_DEFINITION ( 'international standard', 'config_control_design', 1994, #81 ) ;
#203 = APPROVAL_STATUS ( 'not_yet_approved' ) ;
#204 = AXIS2_PLACEMENT_3D ( 'NONE', #121, #51, #225 ) ;
#205 = CALENDAR_DATE ( 2019, 2, 1 ) ;
#206 = LOCAL_TIME ( 13, 26, 13.00000000000000000, #90 ) ;
#207 = PRODUCT_DEFINITION ( 'UNKNOWN', '', #87, #92 ) ;
#208 = APPROVAL_PERSON_ORGANIZATION ( #141, #41, #43 ) ;
#209 = CARTESIAN_POINT ( 'NONE',  ( 0.5000000000000000000, 0.0000000000000000000, 12.45000000000000300 ) ) ;
#210 = DIRECTION ( 'NONE',  ( 0.0000000000000000000, 0.0000000000000000000, -1.000000000000000000 ) ) ;
#211 = ORIENTED_EDGE ( 'NONE', *, *, #105, .F. ) ;
#212 = CARTESIAN_POINT ( 'NONE',  ( -0.4500000000000002900, 1.530808498934191500E-015, -12.50000000000000000 ) ) ;
#213 = PLANE ( 'NONE',  #243 ) ;
#214 = ADVANCED_FACE ( 'NONE', ( #218 ), #271, .F. ) ;
#215 = CARTESIAN_POINT ( 'NONE',  ( 0.4500000000000072300, 0.0000000000000000000, 0.0000000000000000000 ) ) ;
#216 = VECTOR ( 'NONE', #34, 1000.000000000000000 ) ;
#217 = CARTESIAN_POINT ( 'NONE',  ( -0.4500000000000002900, 0.0000000000000000000, 12.50000000000000000 ) ) ;
#218 = FACE_OUTER_BOUND ( 'NONE', #109, .T. ) ;
#219 = AXIS2_PLACEMENT_3D ( 'NONE', #164, #49, #145 ) ;
#220 = FACE_OUTER_BOUND ( 'NONE', #224, .T. ) ;
#221 = APPLICATION_PROTOCOL_DEFINITION ( 'international standard', 'config_control_design', 1994, #61 ) ;
#222 = LINE ( 'NONE', #95, #255 ) ;
#223 = PRODUCT_DEFINITION_SHAPE ( 'NONE', 'NONE',  #207 ) ;
#224 = EDGE_LOOP ( 'NONE', ( #114, #199, #86, #162 ) ) ;
#225 = DIRECTION ( 'NONE',  ( 0.0000000000000000000, 0.0000000000000000000, 1.000000000000000000 ) ) ;
#226 = CARTESIAN_POINT ( 'NONE',  ( 0.5000000000000000000, 0.0000000000000000000, 0.0000000000000000000 ) ) ;
#227 = PERSON_AND_ORGANIZATION ( #267, #44 ) ;
#228 = MANIFOLD_SOLID_BREP ( 'Chamfer1', #189 ) ;
#229 = DIRECTION ( 'NONE',  ( 0.0000000000000000000, 0.0000000000000000000, -1.000000000000000000 ) ) ;
#230 = CALENDAR_DATE ( 2019, 2, 1 ) ;
#231 = APPROVAL_PERSON_ORGANIZATION ( #67, #113, #201 ) ;
#232 = ORIENTED_EDGE ( 'NONE', *, *, #65, .F. ) ;
#233 = AXIS2_PLACEMENT_3D ( 'NONE', #150, #127, #151 ) ;
#234 = LINE ( 'NONE', #104, #143 ) ;
#235 = ORIENTED_EDGE ( 'NONE', *, *, #77, .F. ) ;
#236 = EDGE_CURVE ( 'NONE', #154, #46, #115, .T. ) ;
#237 = VECTOR ( 'NONE', #195, 1000.000000000000000 ) ;
#238 = EDGE_CURVE ( 'NONE', #88, #273, #47, .T. ) ;
#239 = PERSON_AND_ORGANIZATION ( #267, #44 ) ;
#240 = PERSON_AND_ORGANIZATION ( #267, #44 ) ;
#241 = CC_DESIGN_PERSON_AND_ORGANIZATION_ASSIGNMENT ( #240, #112, ( #19 ) ) ;
#242 = EDGE_CURVE ( 'NONE', #58, #91, #3, .T. ) ;
#243 = AXIS2_PLACEMENT_3D ( 'NONE', #144, #265, #210 ) ;
#244 = VERTEX_POINT ( 'NONE', #167 ) ;
#245 = APPROVAL_DATE_TIME ( #24, #41 ) ;
#246 = AXIS2_PLACEMENT_3D ( 'NONE', #18, #55, #229 ) ;
#247 = CARTESIAN_POINT ( 'NONE',  ( -0.5000000000000000000, 1.527746881936323400E-015, 12.45000000000000300 ) ) ;
#248 = EDGE_CURVE ( 'NONE', #89, #244, #107, .T. ) ;
#249 = LOCAL_TIME ( 13, 26, 13.00000000000000000, #155 ) ;
#250 = VECTOR ( 'NONE', #166, 1000.000000000000000 ) ;
#251 = CARTESIAN_POINT ( 'NONE',  ( -0.4500000000000002900, 0.0000000000000000000, 0.0000000000000000000 ) ) ;
#252 = EDGE_LOOP ( 'NONE', ( #118, #153, #31, #235 ) ) ;
#253 = DIRECTION ( 'NONE',  ( 0.0000000000000000000, 0.0000000000000000000, 1.000000000000000000 ) ) ;
#254 = ADVANCED_FACE ( 'NONE', ( #25 ), #264, .T. ) ;
#255 = VECTOR ( 'NONE', #123, 1000.000000000000000 ) ;
#256 = ORIENTED_EDGE ( 'NONE', *, *, #248, .T. ) ;
#257 = EDGE_LOOP ( 'NONE', ( #256, #10 ) ) ;
#258 = APPROVAL_DATE_TIME ( #132, #93 ) ;
#259 = APPROVAL_PERSON_ORGANIZATION ( #163, #93, #106 ) ;
#260 = CIRCLE ( 'NONE', #183, 12.50000000000000000 ) ;
#261 = ORIENTED_EDGE ( 'NONE', *, *, #105, .T. ) ;
#262 = CC_DESIGN_APPROVAL ( #93, ( #87 ) ) ;
#263 = ORIENTED_EDGE ( 'NONE', *, *, #125, .F. ) ;
#264 = CONICAL_SURFACE ( 'NONE', #26, 12.45000000000000300, 0.7853981633975003500 ) ;
#265 = DIRECTION ( 'NONE',  ( 1.000000000000000000, 0.0000000000000000000, 0.0000000000000000000 ) ) ;
#266 = DIRECTION ( 'NONE',  ( -1.000000000000000000, -0.0000000000000000000, -0.0000000000000000000 ) ) ;
#267 = PERSON ( 'UNSPECIFIED', 'UNSPECIFIED', 'UNSPECIFIED', ('UNSPECIFIED'), ('UNSPECIFIED'), ('UNSPECIFIED') ) ;
#268 = DIRECTION ( 'NONE',  ( 0.0000000000000000000, 0.0000000000000000000, 1.000000000000000000 ) ) ;
#269 = DIRECTION ( 'NONE',  ( 0.0000000000000000000, 0.0000000000000000000, -1.000000000000000000 ) ) ;
#270 = ADVANCED_FACE ( 'NONE', ( #220 ), #137, .T. ) ;
#271 = PLANE ( 'NONE',  #100 ) ;
#272 = DIRECTION ( 'NONE',  ( -1.000000000000000000, -0.0000000000000000000, -0.0000000000000000000 ) ) ;
#273 = VERTEX_POINT ( 'NONE', #217 ) ;
#274 = CYLINDRICAL_SURFACE ( 'NONE', #103, 12.50000000000000000 ) ;
#275 = EDGE_CURVE ( 'NONE', #88, #154, #181, .T. ) ;
ENDSEC;
END-ISO-10303-21;
