ISO-10303-21;
HEADER;
FILE_DESCRIPTION (( 'STEP AP203' ),
    '1' );
FILE_NAME ('Web Model 47776_47780.step',
    '2017-04-26T16:25:44',
    ( '' ),
    ( '' ),
    'SwSTEP 2.0',
    'SolidWorks 2016',
    '' );
FILE_SCHEMA (( 'CONFIG_CONTROL_DESIGN' ));
ENDSEC;

DATA;
#1 = PLANE ( 'NONE',  #4 ) ;
#2 = ORIENTED_EDGE ( 'NONE', *, *, #44, .F. ) ;
#3 = CARTESIAN_POINT ( 'NONE',  ( -9.199760500100243800E-016, -9.199760500100243800E-016, -2.500000000000000000 ) ) ;
#4 = AXIS2_PLACEMENT_3D ( 'NONE', #199, #58, #107 ) ;
#5 = EDGE_CURVE ( 'NONE', #135, #112, #276, .T. ) ;
#6 = ORIENTED_EDGE ( 'NONE', *, *, #17, .F. ) ;
#7 = FACE_OUTER_BOUND ( 'NONE', #54, .T. ) ;
#8 = DIRECTION ( 'NONE',  ( -0.0000000000000000000, -0.0000000000000000000, -1.000000000000000000 ) ) ;
#9 = APPROVAL_PERSON_ORGANIZATION ( #66, #82, #181 ) ;
#10 = VERTEX_POINT ( 'NONE', #80 ) ;
#11 = ORIENTED_EDGE ( 'NONE', *, *, #301, .F. ) ;
#12 = EDGE_CURVE ( 'NONE', #37, #135, #291, .T. ) ;
#13 = CARTESIAN_POINT ( 'NONE',  ( 2.499999999999998700, -2.500000000000000400, -2.500000000000000000 ) ) ;
#14 = VERTEX_POINT ( 'NONE', #234 ) ;
#15 = ORIENTED_EDGE ( 'NONE', *, *, #67, .T. ) ;
#16 = CARTESIAN_POINT ( 'NONE',  ( 0.0000000000000000000, 0.0000000000000000000, 2.500000000000000000 ) ) ;
#17 = EDGE_CURVE ( 'NONE', #37, #56, #200, .T. ) ;
#18 = ORIENTED_EDGE ( 'NONE', *, *, #27, .F. ) ;
#19 = CARTESIAN_POINT ( 'NONE',  ( 0.0000000000000000000, -2.500000000000000400, -2.500000000000000000 ) ) ;
#20 = DATE_AND_TIME ( #246, #188 ) ;
#21 = APPROVAL_STATUS ( 'not_yet_approved' ) ;
#22 = ADVANCED_FACE ( 'NONE', ( #76 ), #148, .T. ) ;
#23 = ORIENTED_EDGE ( 'NONE', *, *, #32, .F. ) ;
#24 = CARTESIAN_POINT ( 'NONE',  ( -2.500000000000002200, -2.500000000000000400, -2.500000000000000000 ) ) ;
#25 = ORGANIZATION ( 'UNSPECIFIED', 'UNSPECIFIED', '' ) ;
#26 = VECTOR ( 'NONE', #206, 1000.000000000000000 ) ;
#27 = EDGE_CURVE ( 'NONE', #121, #112, #59, .T. ) ;
#28 = PLANE ( 'NONE',  #300 ) ;
#29 = CARTESIAN_POINT ( 'NONE',  ( 2.499999999999998700, -2.500000000000000400, 2.500000000000000000 ) ) ;
#30 = LINE ( 'NONE', #315, #26 ) ;
#31 = ORIENTED_EDGE ( 'NONE', *, *, #177, .T. ) ;
#32 = EDGE_CURVE ( 'NONE', #147, #121, #74, .T. ) ;
#33 = CARTESIAN_POINT ( 'NONE',  ( -2.500000000000002200, 2.500000000000000400, 2.500000000000000000 ) ) ;
#34 = PLANE ( 'NONE',  #280 ) ;
#35 = ORIENTED_EDGE ( 'NONE', *, *, #301, .T. ) ;
#36 = VERTEX_POINT ( 'NONE', #71 ) ;
#37 = VERTEX_POINT ( 'NONE', #319 ) ;
#38 = CARTESIAN_POINT ( 'NONE',  ( 2.499999999999998700, -2.500000000000000400, -2.500000000000000000 ) ) ;
#39 = APPLICATION_CONTEXT ( 'configuration controlled 3d designs of mechanical parts and assemblies' ) ;
#40 = DATE_AND_TIME ( #170, #45 ) ;
#41 = EDGE_CURVE ( 'NONE', #56, #112, #30, .T. ) ;
#42 = ORIENTED_EDGE ( 'NONE', *, *, #32, .T. ) ;
#43 = EDGE_LOOP ( 'NONE', ( #52, #88, #6 ) ) ;
#44 = EDGE_CURVE ( 'NONE', #122, #180, #195, .T. ) ;
#45 = LOCAL_TIME ( 12, 25, 44.00000000000000000, #309 ) ;
#46 = EDGE_LOOP ( 'NONE', ( #31, #134, #2 ) ) ;
#47 = VECTOR ( 'NONE', #272, 1000.000000000000000 ) ;
#48 = DIRECTION ( 'NONE',  ( -0.7071067811865474600, 0.7071067811865474600, 0.0000000000000000000 ) ) ;
#49 = ADVANCED_FACE ( 'NONE', ( #167 ), #175, .F. ) ;
#50 = LINE ( 'NONE', #3, #205 ) ;
#51 = CARTESIAN_POINT ( 'NONE',  ( 2.499999999999998700, 2.500000000000000400, 2.500000000000000000 ) ) ;
#52 = ORIENTED_EDGE ( 'NONE', *, *, #306, .T. ) ;
#53 =( GEOMETRIC_REPRESENTATION_CONTEXT ( 3 ) GLOBAL_UNCERTAINTY_ASSIGNED_CONTEXT ( ( #263 ) ) GLOBAL_UNIT_ASSIGNED_CONTEXT ( ( #130, #254, #223 ) ) REPRESENTATION_CONTEXT ( 'NONE', 'WORKASPACE' ) );
#54 = EDGE_LOOP ( 'NONE', ( #83, #285, #215 ) ) ;
#55 = CARTESIAN_POINT ( 'NONE',  ( -9.199760500100243800E-016, -9.199760500100243800E-016, 2.500000000000000000 ) ) ;
#56 = VERTEX_POINT ( 'NONE', #51 ) ;
#57 = DIRECTION ( 'NONE',  ( 1.000000000000000000, 0.0000000000000000000, 0.0000000000000000000 ) ) ;
#58 = DIRECTION ( 'NONE',  ( 0.7071067811865475700, 0.7071067811865475700, -0.0000000000000000000 ) ) ;
#59 = LINE ( 'NONE', #204, #305 ) ;
#60 = SECURITY_CLASSIFICATION ( '', '', #161 ) ;
#61 = DATE_AND_TIME ( #186, #193 ) ;
#62 = ORIENTED_EDGE ( 'NONE', *, *, #27, .T. ) ;
#63 = APPROVAL_DATE_TIME ( #237, #104 ) ;
#64 = DIRECTION ( 'NONE',  ( -0.0000000000000000000, 0.0000000000000000000, 1.000000000000000000 ) ) ;
#65 = CARTESIAN_POINT ( 'NONE',  ( -2.500000000000002200, -2.500000000000000400, 2.500000000000000000 ) ) ;
#66 = PERSON_AND_ORGANIZATION ( #172, #25 ) ;
#67 = EDGE_CURVE ( 'NONE', #264, #10, #182, .T. ) ;
#68 = DATE_TIME_ROLE ( 'creation_date' ) ;
#69 = PERSON_AND_ORGANIZATION_ROLE ( 'classification_officer' ) ;
#70 = FACE_OUTER_BOUND ( 'NONE', #219, .T. ) ;
#71 = CARTESIAN_POINT ( 'NONE',  ( -2.500000000000002200, 2.500000000000000400, -2.500000000000000000 ) ) ;
#72 = DIRECTION ( 'NONE',  ( 0.0000000000000000000, 0.0000000000000000000, 1.000000000000000000 ) ) ;
#73 = APPROVAL_STATUS ( 'not_yet_approved' ) ;
#74 = LINE ( 'NONE', #269, #318 ) ;
#75 = DIRECTION ( 'NONE',  ( -0.0000000000000000000, -0.0000000000000000000, -1.000000000000000000 ) ) ;
#76 = FACE_OUTER_BOUND ( 'NONE', #142, .T. ) ;
#77 = CARTESIAN_POINT ( 'NONE',  ( 2.499999999999998700, 2.500000000000000400, -2.500000000000000000 ) ) ;
#78 = CC_DESIGN_PERSON_AND_ORGANIZATION_ASSIGNMENT ( #108, #218, ( #145 ) ) ;
#79 = MECHANICAL_CONTEXT ( 'NONE', #159, 'mechanical' ) ;
#80 = CARTESIAN_POINT ( 'NONE',  ( 2.499999999999998700, -2.500000000000000400, 2.500000000000000000 ) ) ;
#81 = DIRECTION ( 'NONE',  ( -0.0000000000000000000, -0.0000000000000000000, -1.000000000000000000 ) ) ;
#82 = APPROVAL ( #73, 'UNSPECIFIED' ) ;
#83 = ORIENTED_EDGE ( 'NONE', *, *, #265, .F. ) ;
#84 = ORIENTED_EDGE ( 'NONE', *, *, #5, .T. ) ;
#85 = EDGE_LOOP ( 'NONE', ( #11, #84, #18 ) ) ;
#86 = DATE_TIME_ROLE ( 'classification_date' ) ;
#87 = LOCAL_TIME ( 12, 25, 44.00000000000000000, #228 ) ;
#88 = ORIENTED_EDGE ( 'NONE', *, *, #311, .T. ) ;
#89 = VECTOR ( 'NONE', #57, 1000.000000000000000 ) ;
#90 = ORIENTED_EDGE ( 'NONE', *, *, #311, .F. ) ;
#91 = AXIS2_PLACEMENT_3D ( 'NONE', #102, #207, #140 ) ;
#92 = FACE_OUTER_BOUND ( 'NONE', #85, .T. ) ;
#93 = LINE ( 'NONE', #29, #288 ) ;
#94 = PRODUCT ( 'Web Model 47776_47780', 'Web Model 47776_47780', '', ( #79 ) ) ;
#95 = CC_DESIGN_PERSON_AND_ORGANIZATION_ASSIGNMENT ( #198, #69, ( #60 ) ) ;
#96 = ORIENTED_EDGE ( 'NONE', *, *, #183, .T. ) ;
#97 = CARTESIAN_POINT ( 'NONE',  ( 2.499999999999998700, 0.0000000000000000000, 2.500000000000000000 ) ) ;
#98 = CLOSED_SHELL ( 'NONE', ( #154, #49, #22, #126, #101 ) ) ;
#99 = ORIENTED_EDGE ( 'NONE', *, *, #41, .T. ) ;
#100 = CC_DESIGN_DATE_AND_TIME_ASSIGNMENT ( #40, #86, ( #60 ) ) ;
#101 = ADVANCED_FACE ( 'NONE', ( #92 ), #260, .F. ) ;
#102 = CARTESIAN_POINT ( 'NONE',  ( 0.0000000000000000000, 2.500000000000000400, 2.500000000000000000 ) ) ;
#103 = CARTESIAN_POINT ( 'NONE',  ( 0.0000000000000000000, 0.0000000000000000000, 0.0000000000000000000 ) ) ;
#104 = APPROVAL ( #21, 'UNSPECIFIED' ) ;
#105 = FACE_OUTER_BOUND ( 'NONE', #171, .T. ) ;
#106 = DIRECTION ( 'NONE',  ( -0.0000000000000000000, 0.0000000000000000000, 1.000000000000000000 ) ) ;
#107 = DIRECTION ( 'NONE',  ( -0.7071067811865474600, 0.7071067811865474600, 0.0000000000000000000 ) ) ;
#108 = PERSON_AND_ORGANIZATION ( #172, #25 ) ;
#109 = DIRECTION ( 'NONE',  ( 0.7071067811865474600, -0.7071067811865474600, 0.0000000000000000000 ) ) ;
#110 = CC_DESIGN_APPROVAL ( #104, ( #60 ) ) ;
#111 = AXIS2_PLACEMENT_3D ( 'NONE', #289, #231, #262 ) ;
#112 = VERTEX_POINT ( 'NONE', #77 ) ;
#113 = APPLICATION_PROTOCOL_DEFINITION ( 'international standard', 'config_control_design', 1994, #159 ) ;
#114 = DIRECTION ( 'NONE',  ( 0.7071067811865475700, 0.7071067811865475700, -0.0000000000000000000 ) ) ;
#115 = AXIS2_PLACEMENT_3D ( 'NONE', #16, #201, #211 ) ;
#116 = APPROVAL_PERSON_ORGANIZATION ( #297, #284, #299 ) ;
#117 = DIRECTION ( 'NONE',  ( 0.0000000000000000000, 1.000000000000000000, -0.0000000000000000000 ) ) ;
#118 = CLOSED_SHELL ( 'NONE', ( #320, #178, #250, #266, #225 ) ) ;
#119 = CARTESIAN_POINT ( 'NONE',  ( 0.0000000000000000000, 0.0000000000000000000, -2.500000000000000000 ) ) ;
#120 = ORIENTED_EDGE ( 'NONE', *, *, #41, .F. ) ;
#121 = VERTEX_POINT ( 'NONE', #13 ) ;
#122 = VERTEX_POINT ( 'NONE', #24 ) ;
#123 = CC_DESIGN_SECURITY_CLASSIFICATION ( #60, ( #145 ) ) ;
#124 = LINE ( 'NONE', #65, #226 ) ;
#125 = COORDINATED_UNIVERSAL_TIME_OFFSET ( 5, 0, .BEHIND. ) ;
#126 = ADVANCED_FACE ( 'NONE', ( #224 ), #283, .T. ) ;
#127 = CALENDAR_DATE ( 2017, 26, 4 ) ;
#128 = VECTOR ( 'NONE', #295, 1000.000000000000000 ) ;
#129 = PRODUCT_RELATED_PRODUCT_CATEGORY ( 'detail', '', ( #94 ) ) ;
#130 =( LENGTH_UNIT ( ) NAMED_UNIT ( * ) SI_UNIT ( .MILLI., .METRE. ) );
#131 = DIRECTION ( 'NONE',  ( -0.0000000000000000000, -0.0000000000000000000, -1.000000000000000000 ) ) ;
#132 = DESIGN_CONTEXT ( 'detailed design', #39, 'design' ) ;
#133 = DIRECTION ( 'NONE',  ( 1.000000000000000000, 0.0000000000000000000, 0.0000000000000000000 ) ) ;
#134 = ORIENTED_EDGE ( 'NONE', *, *, #286, .T. ) ;
#135 = VERTEX_POINT ( 'NONE', #203 ) ;
#136 = DIRECTION ( 'NONE',  ( 1.000000000000000000, 0.0000000000000000000, 0.0000000000000000000 ) ) ;
#137 = PERSON_AND_ORGANIZATION ( #172, #25 ) ;
#138 = ORIENTED_EDGE ( 'NONE', *, *, #12, .T. ) ;
#139 = PERSON_AND_ORGANIZATION_ROLE ( 'creator' ) ;
#140 = DIRECTION ( 'NONE',  ( 0.0000000000000000000, -0.0000000000000000000, 1.000000000000000000 ) ) ;
#141 = APPROVAL_DATE_TIME ( #61, #82 ) ;
#142 = EDGE_LOOP ( 'NONE', ( #304, #256, #278, #99 ) ) ;
#143 = CC_DESIGN_APPROVAL ( #284, ( #249 ) ) ;
#144 = ORIENTED_EDGE ( 'NONE', *, *, #210, .T. ) ;
#145 = PRODUCT_DEFINITION_FORMATION_WITH_SPECIFIED_SOURCE ( 'ANY', '', #94, .NOT_KNOWN. ) ;
#146 = CALENDAR_DATE ( 2017, 26, 4 ) ;
#147 = VERTEX_POINT ( 'NONE', #230 ) ;
#148 = PLANE ( 'NONE',  #91 ) ;
#149 = FACE_OUTER_BOUND ( 'NONE', #46, .T. ) ;
#150 = ORIENTED_EDGE ( 'NONE', *, *, #286, .F. ) ;
#151 = LINE ( 'NONE', #213, #128 ) ;
#152 = CC_DESIGN_APPROVAL ( #82, ( #145 ) ) ;
#153 = PERSON_AND_ORGANIZATION ( #172, #25 ) ;
#154 = ADVANCED_FACE ( 'NONE', ( #70 ), #28, .F. ) ;
#155 = DIRECTION ( 'NONE',  ( 0.0000000000000000000, 1.000000000000000000, -0.0000000000000000000 ) ) ;
#156 = VECTOR ( 'NONE', #229, 1000.000000000000000 ) ;
#157 = CARTESIAN_POINT ( 'NONE',  ( 0.0000000000000000000, 0.0000000000000000000, -2.500000000000000000 ) ) ;
#158 = CC_DESIGN_DATE_AND_TIME_ASSIGNMENT ( #20, #68, ( #249 ) ) ;
#159 = APPLICATION_CONTEXT ( 'configuration controlled 3d designs of mechanical parts and assemblies' ) ;
#160 = LINE ( 'NONE', #97, #169 ) ;
#161 = SECURITY_CLASSIFICATION_LEVEL ( 'unclassified' ) ;
#162 = EDGE_LOOP ( 'NONE', ( #62, #120, #90, #42 ) ) ;
#163 = ORIENTED_EDGE ( 'NONE', *, *, #265, .T. ) ;
#164 = PERSON_AND_ORGANIZATION_ROLE ( 'design_owner' ) ;
#165 = VECTOR ( 'NONE', #307, 1000.000000000000100 ) ;
#166 = COORDINATED_UNIVERSAL_TIME_OFFSET ( 5, 0, .BEHIND. ) ;
#167 = FACE_OUTER_BOUND ( 'NONE', #162, .T. ) ;
#168 = AXIS2_PLACEMENT_3D ( 'NONE', #103, #240, #136 ) ;
#169 = VECTOR ( 'NONE', #155, 1000.000000000000000 ) ;
#170 = CALENDAR_DATE ( 2017, 26, 4 ) ;
#171 = EDGE_LOOP ( 'NONE', ( #150, #290, #15, #96 ) ) ;
#172 = PERSON ( 'UNSPECIFIED', 'UNSPECIFIED', 'UNSPECIFIED', ('UNSPECIFIED'), ('UNSPECIFIED'), ('UNSPECIFIED') ) ;
#173 = APPROVAL_PERSON_ORGANIZATION ( #153, #104, #281 ) ;
#174 = CC_DESIGN_PERSON_AND_ORGANIZATION_ASSIGNMENT ( #251, #220, ( #145 ) ) ;
#175 = PLANE ( 'NONE',  #111 ) ;
#176 = FACE_OUTER_BOUND ( 'NONE', #191, .T. ) ;
#177 = EDGE_CURVE ( 'NONE', #122, #36, #151, .T. ) ;
#178 = ADVANCED_FACE ( 'NONE', ( #176 ), #34, .F. ) ;
#179 = ORIENTED_EDGE ( 'NONE', *, *, #244, .F. ) ;
#180 = VERTEX_POINT ( 'NONE', #38 ) ;
#181 = APPROVAL_ROLE ( '' ) ;
#182 = LINE ( 'NONE', #268, #165 ) ;
#183 = EDGE_CURVE ( 'NONE', #10, #180, #93, .T. ) ;
#184 = AXIS2_PLACEMENT_3D ( 'NONE', #119, #259, #267 ) ;
#185 = PLANE ( 'NONE',  #115 ) ;
#186 = CALENDAR_DATE ( 2017, 26, 4 ) ;
#187 = DIRECTION ( 'NONE',  ( 1.000000000000000000, 0.0000000000000000000, 0.0000000000000000000 ) ) ;
#188 = LOCAL_TIME ( 12, 25, 44.00000000000000000, #245 ) ;
#189 = AXIS2_PLACEMENT_3D ( 'NONE', #312, #314, #72 ) ;
#190 = DIRECTION ( 'NONE',  ( 1.000000000000000000, 0.0000000000000000000, 0.0000000000000000000 ) ) ;
#191 = EDGE_LOOP ( 'NONE', ( #209, #258, #179, #242 ) ) ;
#192 = ORIENTED_EDGE ( 'NONE', *, *, #217, .F. ) ;
#193 = LOCAL_TIME ( 12, 25, 44.00000000000000000, #166 ) ;
#194 = EDGE_LOOP ( 'NONE', ( #232, #192, #163, #144 ) ) ;
#195 = LINE ( 'NONE', #19, #247 ) ;
#196 = VECTOR ( 'NONE', #273, 1000.000000000000100 ) ;
#197 = LINE ( 'NONE', #293, #275 ) ;
#198 = PERSON_AND_ORGANIZATION ( #172, #25 ) ;
#199 = CARTESIAN_POINT ( 'NONE',  ( -9.199760500100243800E-016, -9.199760500100243800E-016, 2.500000000000000000 ) ) ;
#200 = LINE ( 'NONE', #282, #156 ) ;
#201 = DIRECTION ( 'NONE',  ( -0.0000000000000000000, 0.0000000000000000000, 1.000000000000000000 ) ) ;
#202 = FACE_OUTER_BOUND ( 'NONE', #194, .T. ) ;
#203 = CARTESIAN_POINT ( 'NONE',  ( -2.500000000000002200, 2.500000000000000400, -2.500000000000000000 ) ) ;
#204 = CARTESIAN_POINT ( 'NONE',  ( 2.499999999999998700, 0.0000000000000000000, -2.500000000000000000 ) ) ;
#205 = VECTOR ( 'NONE', #109, 1000.000000000000100 ) ;
#206 = DIRECTION ( 'NONE',  ( -0.0000000000000000000, -0.0000000000000000000, -1.000000000000000000 ) ) ;
#207 = DIRECTION ( 'NONE',  ( 0.0000000000000000000, 1.000000000000000000, 0.0000000000000000000 ) ) ;
#208 = AXIS2_PLACEMENT_3D ( 'NONE', #157, #106, #187 ) ;
#209 = ORIENTED_EDGE ( 'NONE', *, *, #44, .T. ) ;
#210 = EDGE_CURVE ( 'NONE', #264, #36, #197, .T. ) ;
#211 = DIRECTION ( 'NONE',  ( 1.000000000000000000, 0.0000000000000000000, 0.0000000000000000000 ) ) ;
#212 = MANIFOLD_SOLID_BREP ( 'Boss-Extrude2', #118 ) ;
#213 = CARTESIAN_POINT ( 'NONE',  ( -2.500000000000002200, 0.0000000000000000000, -2.500000000000000000 ) ) ;
#214 = VECTOR ( 'NONE', #190, 1000.000000000000000 ) ;
#215 = ORIENTED_EDGE ( 'NONE', *, *, #67, .F. ) ;
#216 = CARTESIAN_POINT ( 'NONE',  ( -0.0000000000000000000, 2.500000000000000400, -2.500000000000000000 ) ) ;
#217 = EDGE_CURVE ( 'NONE', #14, #122, #124, .T. ) ;
#218 = PERSON_AND_ORGANIZATION_ROLE ( 'creator' ) ;
#219 = EDGE_LOOP ( 'NONE', ( #35, #23, #261, #138 ) ) ;
#220 = PERSON_AND_ORGANIZATION_ROLE ( 'design_supplier' ) ;
#221 = PRODUCT_DEFINITION_SHAPE ( 'NONE', 'NONE',  #249 ) ;
#222 = CC_DESIGN_PERSON_AND_ORGANIZATION_ASSIGNMENT ( #137, #139, ( #249 ) ) ;
#223 =( NAMED_UNIT ( * ) SI_UNIT ( $, .STERADIAN. ) SOLID_ANGLE_UNIT ( ) );
#224 = FACE_OUTER_BOUND ( 'NONE', #43, .T. ) ;
#225 = ADVANCED_FACE ( 'NONE', ( #149 ), #308, .F. ) ;
#226 = VECTOR ( 'NONE', #277, 1000.000000000000000 ) ;
#227 = LINE ( 'NONE', #302, #196 ) ;
#228 = COORDINATED_UNIVERSAL_TIME_OFFSET ( 5, 0, .BEHIND. ) ;
#229 = DIRECTION ( 'NONE',  ( 1.000000000000000000, 0.0000000000000000000, 0.0000000000000000000 ) ) ;
#230 = CARTESIAN_POINT ( 'NONE',  ( 2.499999999999998700, -2.500000000000000400, 2.500000000000000000 ) ) ;
#231 = DIRECTION ( 'NONE',  ( -1.000000000000000000, 0.0000000000000000000, 0.0000000000000000000 ) ) ;
#232 = ORIENTED_EDGE ( 'NONE', *, *, #177, .F. ) ;
#233 = APPROVAL_STATUS ( 'not_yet_approved' ) ;
#234 = CARTESIAN_POINT ( 'NONE',  ( -2.500000000000002200, -2.500000000000000400, 2.500000000000000000 ) ) ;
#235 = MANIFOLD_SOLID_BREP ( 'Boss-Extrude3', #98 ) ;
#236 = DATE_AND_TIME ( #146, #274 ) ;
#237 = DATE_AND_TIME ( #127, #87 ) ;
#238 = DIRECTION ( 'NONE',  ( 1.000000000000000000, 0.0000000000000000000, 0.0000000000000000000 ) ) ;
#239 = VECTOR ( 'NONE', #270, 1000.000000000000100 ) ;
#240 = DIRECTION ( 'NONE',  ( 0.0000000000000000000, 0.0000000000000000000, 1.000000000000000000 ) ) ;
#241 = CARTESIAN_POINT ( 'NONE',  ( 0.0000000000000000000, 0.0000000000000000000, 2.500000000000000000 ) ) ;
#242 = ORIENTED_EDGE ( 'NONE', *, *, #217, .T. ) ;
#243 = AXIS2_PLACEMENT_3D ( 'NONE', #241, #64, #133 ) ;
#244 = EDGE_CURVE ( 'NONE', #14, #10, #316, .T. ) ;
#245 = COORDINATED_UNIVERSAL_TIME_OFFSET ( 5, 0, .BEHIND. ) ;
#246 = CALENDAR_DATE ( 2017, 26, 4 ) ;
#247 = VECTOR ( 'NONE', #238, 1000.000000000000000 ) ;
#248 = CARTESIAN_POINT ( 'NONE',  ( 0.0000000000000000000, -2.500000000000000400, 2.500000000000000000 ) ) ;
#249 = PRODUCT_DEFINITION ( 'UNKNOWN', '', #145, #132 ) ;
#250 = ADVANCED_FACE ( 'NONE', ( #105 ), #1, .T. ) ;
#251 = PERSON_AND_ORGANIZATION ( #172, #25 ) ;
#252 = LINE ( 'NONE', #253, #47 ) ;
#253 = CARTESIAN_POINT ( 'NONE',  ( -2.500000000000002200, 0.0000000000000000000, 2.500000000000000000 ) ) ;
#254 =( NAMED_UNIT ( * ) PLANE_ANGLE_UNIT ( ) SI_UNIT ( $, .RADIAN. ) );
#255 = PLANE ( 'NONE',  #189 ) ;
#256 = ORIENTED_EDGE ( 'NONE', *, *, #12, .F. ) ;
#257 = VECTOR ( 'NONE', #8, 1000.000000000000000 ) ;
#258 = ORIENTED_EDGE ( 'NONE', *, *, #183, .F. ) ;
#259 = DIRECTION ( 'NONE',  ( -0.0000000000000000000, 0.0000000000000000000, 1.000000000000000000 ) ) ;
#260 = PLANE ( 'NONE',  #208 ) ;
#261 = ORIENTED_EDGE ( 'NONE', *, *, #306, .F. ) ;
#262 = DIRECTION ( 'NONE',  ( 0.0000000000000000000, 0.0000000000000000000, 1.000000000000000000 ) ) ;
#263 = UNCERTAINTY_MEASURE_WITH_UNIT (LENGTH_MEASURE( 1.000000000000000100E-005 ), #130, 'distance_accuracy_value', 'NONE');
#264 = VERTEX_POINT ( 'NONE', #287 ) ;
#265 = EDGE_CURVE ( 'NONE', #14, #264, #252, .T. ) ;
#266 = ADVANCED_FACE ( 'NONE', ( #7 ), #185, .T. ) ;
#267 = DIRECTION ( 'NONE',  ( 1.000000000000000000, 0.0000000000000000000, 0.0000000000000000000 ) ) ;
#268 = CARTESIAN_POINT ( 'NONE',  ( -9.199760500100243800E-016, -9.199760500100243800E-016, 2.500000000000000000 ) ) ;
#269 = CARTESIAN_POINT ( 'NONE',  ( 2.499999999999998700, -2.500000000000000400, 2.500000000000000000 ) ) ;
#270 = DIRECTION ( 'NONE',  ( 0.7071067811865474600, -0.7071067811865474600, 0.0000000000000000000 ) ) ;
#271 = DIRECTION ( 'NONE',  ( 0.0000000000000000000, 1.000000000000000000, 0.0000000000000000000 ) ) ;
#272 = DIRECTION ( 'NONE',  ( 0.0000000000000000000, 1.000000000000000000, -0.0000000000000000000 ) ) ;
#273 = DIRECTION ( 'NONE',  ( 0.7071067811865474600, -0.7071067811865474600, 0.0000000000000000000 ) ) ;
#274 = LOCAL_TIME ( 12, 25, 44.00000000000000000, #125 ) ;
#275 = VECTOR ( 'NONE', #75, 1000.000000000000000 ) ;
#276 = LINE ( 'NONE', #216, #89 ) ;
#277 = DIRECTION ( 'NONE',  ( -0.0000000000000000000, -0.0000000000000000000, -1.000000000000000000 ) ) ;
#278 = ORIENTED_EDGE ( 'NONE', *, *, #17, .T. ) ;
#279 = APPLICATION_PROTOCOL_DEFINITION ( 'international standard', 'config_control_design', 1994, #39 ) ;
#280 = AXIS2_PLACEMENT_3D ( 'NONE', #248, #271, #310 ) ;
#281 = APPROVAL_ROLE ( '' ) ;
#282 = CARTESIAN_POINT ( 'NONE',  ( 0.0000000000000000000, 2.500000000000000400, 2.500000000000000000 ) ) ;
#283 = PLANE ( 'NONE',  #243 ) ;
#284 = APPROVAL ( #233, 'UNSPECIFIED' ) ;
#285 = ORIENTED_EDGE ( 'NONE', *, *, #244, .T. ) ;
#286 = EDGE_CURVE ( 'NONE', #36, #180, #227, .T. ) ;
#287 = CARTESIAN_POINT ( 'NONE',  ( -2.500000000000002200, 2.500000000000000400, 2.500000000000000000 ) ) ;
#288 = VECTOR ( 'NONE', #131, 1000.000000000000000 ) ;
#289 = CARTESIAN_POINT ( 'NONE',  ( 2.499999999999998700, 0.0000000000000000000, 2.500000000000000000 ) ) ;
#290 = ORIENTED_EDGE ( 'NONE', *, *, #210, .F. ) ;
#291 = LINE ( 'NONE', #33, #257 ) ;
#292 = CARTESIAN_POINT ( 'NONE',  ( -9.199760500100243800E-016, -9.199760500100243800E-016, 2.500000000000000000 ) ) ;
#293 = CARTESIAN_POINT ( 'NONE',  ( -2.500000000000002200, 2.500000000000000400, 2.500000000000000000 ) ) ;
#294 = PERSON_AND_ORGANIZATION ( #172, #25 ) ;
#295 = DIRECTION ( 'NONE',  ( 0.0000000000000000000, 1.000000000000000000, -0.0000000000000000000 ) ) ;
#296 = CARTESIAN_POINT ( 'NONE',  ( 0.0000000000000000000, -2.500000000000000400, 2.500000000000000000 ) ) ;
#297 = PERSON_AND_ORGANIZATION ( #172, #25 ) ;
#298 = APPROVAL_DATE_TIME ( #236, #284 ) ;
#299 = APPROVAL_ROLE ( '' ) ;
#300 = AXIS2_PLACEMENT_3D ( 'NONE', #55, #114, #48 ) ;
#301 = EDGE_CURVE ( 'NONE', #135, #121, #50, .T. ) ;
#302 = CARTESIAN_POINT ( 'NONE',  ( -9.199760500100243800E-016, -9.199760500100243800E-016, -2.500000000000000000 ) ) ;
#303 = SHAPE_DEFINITION_REPRESENTATION ( #221, #321 ) ;
#304 = ORIENTED_EDGE ( 'NONE', *, *, #5, .F. ) ;
#305 = VECTOR ( 'NONE', #117, 1000.000000000000000 ) ;
#306 = EDGE_CURVE ( 'NONE', #37, #147, #317, .T. ) ;
#307 = DIRECTION ( 'NONE',  ( 0.7071067811865474600, -0.7071067811865474600, 0.0000000000000000000 ) ) ;
#308 = PLANE ( 'NONE',  #184 ) ;
#309 = COORDINATED_UNIVERSAL_TIME_OFFSET ( 5, 0, .BEHIND. ) ;
#310 = DIRECTION ( 'NONE',  ( 0.0000000000000000000, -0.0000000000000000000, 1.000000000000000000 ) ) ;
#311 = EDGE_CURVE ( 'NONE', #147, #56, #160, .T. ) ;
#312 = CARTESIAN_POINT ( 'NONE',  ( -2.500000000000002200, 0.0000000000000000000, 2.500000000000000000 ) ) ;
#313 = CC_DESIGN_PERSON_AND_ORGANIZATION_ASSIGNMENT ( #294, #164, ( #94 ) ) ;
#314 = DIRECTION ( 'NONE',  ( -1.000000000000000000, 0.0000000000000000000, 0.0000000000000000000 ) ) ;
#315 = CARTESIAN_POINT ( 'NONE',  ( 2.499999999999998700, 2.500000000000000400, 2.500000000000000000 ) ) ;
#316 = LINE ( 'NONE', #296, #214 ) ;
#317 = LINE ( 'NONE', #292, #239 ) ;
#318 = VECTOR ( 'NONE', #81, 1000.000000000000000 ) ;
#319 = CARTESIAN_POINT ( 'NONE',  ( -2.500000000000002200, 2.500000000000000400, 2.500000000000000000 ) ) ;
#320 = ADVANCED_FACE ( 'NONE', ( #202 ), #255, .T. ) ;
#321 = ADVANCED_BREP_SHAPE_REPRESENTATION ( 'Web Model 47776_47780', ( #212, #235, #168 ), #53 ) ;
ENDSEC;
END-ISO-10303-21;
