ISO-10303-21;
HEADER;
FILE_DESCRIPTION (( 'STEP AP203' ),
    '1' );
FILE_NAME ('Web Model 64402MX_41037.step',
    '2017-10-30T13:09:13',
    ( '' ),
    ( '' ),
    'SwSTEP 2.0',
    'SolidWorks 2016',
    '' );
FILE_SCHEMA (( 'CONFIG_CONTROL_DESIGN' ));
ENDSEC;

DATA;
#1 = ORGANIZATION ( 'UNSPECIFIED', 'UNSPECIFIED', '' ) ;
#2 = CC_DESIGN_PERSON_AND_ORGANIZATION_ASSIGNMENT ( #121, #148, ( #169 ) ) ;
#3 = CARTESIAN_POINT ( 'NONE',  ( 12.49999999999999800, -12.49999999999999600, -4.750000000000000000 ) ) ;
#4 = DIRECTION ( 'NONE',  ( 1.387778780781445700E-016, -1.000000000000000000, 0.0000000000000000000 ) ) ;
#5 = PLANE ( 'NONE',  #133 ) ;
#6 = COORDINATED_UNIVERSAL_TIME_OFFSET ( 5, 0, .BEHIND. ) ;
#7 = LINE ( 'NONE', #3, #33 ) ;
#8 = APPLICATION_PROTOCOL_DEFINITION ( 'international standard', 'config_control_design', 1994, #198 ) ;
#9 = DATE_TIME_ROLE ( 'creation_date' ) ;
#10 = CC_DESIGN_PERSON_AND_ORGANIZATION_ASSIGNMENT ( #135, #52, ( #16 ) ) ;
#11 = DIRECTION ( 'NONE',  ( 0.0000000000000000000, -0.0000000000000000000, 1.000000000000000000 ) ) ;
#12 = LOCAL_TIME ( 9, 9, 13.00000000000000000, #60 ) ;
#13 = ORIENTED_EDGE ( 'NONE', *, *, #191, .F. ) ;
#14 = ADVANCED_BREP_SHAPE_REPRESENTATION ( 'Web Model 64402MX_41037', ( #65, #58 ), #100 ) ;
#15 = CALENDAR_DATE ( 2017, 30, 10 ) ;
#16 = PRODUCT ( 'Web Model 64402MX_41037', 'Web Model 64402MX_41037', '', ( #145 ) ) ;
#17 = LINE ( 'NONE', #226, #203 ) ;
#18 = APPROVAL ( #147, 'UNSPECIFIED' ) ;
#19 = ORIENTED_EDGE ( 'NONE', *, *, #185, .F. ) ;
#20 = APPROVAL ( #70, 'UNSPECIFIED' ) ;
#21 = UNCERTAINTY_MEASURE_WITH_UNIT (LENGTH_MEASURE( 1.000000000000000100E-005 ), #68, 'distance_accuracy_value', 'NONE');
#22 = ORIENTED_EDGE ( 'NONE', *, *, #191, .T. ) ;
#23 = EDGE_LOOP ( 'NONE', ( #206, #22, #97, #81 ) ) ;
#24 = CARTESIAN_POINT ( 'NONE',  ( -12.50000000000000200, -12.50000000000000000, 4.750000000000000000 ) ) ;
#25 = CC_DESIGN_PERSON_AND_ORGANIZATION_ASSIGNMENT ( #164, #199, ( #105 ) ) ;
#26 = CARTESIAN_POINT ( 'NONE',  ( 12.49999999999999800, -12.49999999999999600, 4.750000000000000000 ) ) ;
#27 = CARTESIAN_POINT ( 'NONE',  ( 0.0000000000000000000, 0.0000000000000000000, 4.750000000000000000 ) ) ;
#28 = DIRECTION ( 'NONE',  ( -1.000000000000000000, -1.387778780781445700E-016, 0.0000000000000000000 ) ) ;
#29 = ORIENTED_EDGE ( 'NONE', *, *, #78, .F. ) ;
#30 = DIRECTION ( 'NONE',  ( -0.0000000000000000000, -1.000000000000000000, -0.0000000000000000000 ) ) ;
#31 = CC_DESIGN_PERSON_AND_ORGANIZATION_ASSIGNMENT ( #204, #129, ( #77 ) ) ;
#32 = DIRECTION ( 'NONE',  ( 0.0000000000000000000, 0.0000000000000000000, 1.000000000000000000 ) ) ;
#33 = VECTOR ( 'NONE', #223, 1000.000000000000000 ) ;
#34 = VERTEX_POINT ( 'NONE', #45 ) ;
#35 = APPROVAL_ROLE ( '' ) ;
#36 = PERSON_AND_ORGANIZATION ( #170, #1 ) ;
#37 = ORIENTED_EDGE ( 'NONE', *, *, #172, .F. ) ;
#38 = EDGE_CURVE ( 'NONE', #114, #132, #218, .T. ) ;
#39 = EDGE_CURVE ( 'NONE', #137, #114, #7, .T. ) ;
#40 = APPROVAL_DATE_TIME ( #149, #153 ) ;
#41 = LINE ( 'NONE', #158, #101 ) ;
#42 = APPROVAL_DATE_TIME ( #168, #20 ) ;
#43 = CLOSED_SHELL ( 'NONE', ( #166, #227, #51, #108, #88, #192 ) ) ;
#44 = PLANE ( 'NONE',  #54 ) ;
#45 = CARTESIAN_POINT ( 'NONE',  ( -12.50000000000000200, -12.50000000000000000, -4.750000000000000000 ) ) ;
#46 = VECTOR ( 'NONE', #140, 1000.000000000000000 ) ;
#47 = AXIS2_PLACEMENT_3D ( 'NONE', #24, #71, #109 ) ;
#48 = CARTESIAN_POINT ( 'NONE',  ( 12.49999999999999800, -12.49999999999999600, 4.750000000000000000 ) ) ;
#49 = LINE ( 'NONE', #197, #56 ) ;
#50 = EDGE_LOOP ( 'NONE', ( #165, #102, #13, #122 ) ) ;
#51 = ADVANCED_FACE ( 'NONE', ( #152 ), #178, .F. ) ;
#52 = PERSON_AND_ORGANIZATION_ROLE ( 'design_owner' ) ;
#53 = PERSON_AND_ORGANIZATION_ROLE ( 'creator' ) ;
#54 = AXIS2_PLACEMENT_3D ( 'NONE', #27, #194, #190 ) ;
#55 = LINE ( 'NONE', #184, #215 ) ;
#56 = VECTOR ( 'NONE', #30, 1000.000000000000000 ) ;
#57 = APPROVAL_ROLE ( '' ) ;
#58 = AXIS2_PLACEMENT_3D ( 'NONE', #69, #32, #112 ) ;
#59 = CC_DESIGN_APPROVAL ( #153, ( #105 ) ) ;
#60 = COORDINATED_UNIVERSAL_TIME_OFFSET ( 5, 0, .BEHIND. ) ;
#61 = DATE_AND_TIME ( #229, #116 ) ;
#62 = CALENDAR_DATE ( 2017, 30, 10 ) ;
#63 = ORIENTED_EDGE ( 'NONE', *, *, #78, .T. ) ;
#64 = DIRECTION ( 'NONE',  ( -1.000000000000000000, 0.0000000000000000000, 0.0000000000000000000 ) ) ;
#65 = MANIFOLD_SOLID_BREP ( 'Boss-Extrude1', #43 ) ;
#66 = CARTESIAN_POINT ( 'NONE',  ( 12.49999999999999800, -12.49999999999999600, -4.750000000000000000 ) ) ;
#67 = VECTOR ( 'NONE', #87, 1000.000000000000000 ) ;
#68 =( LENGTH_UNIT ( ) NAMED_UNIT ( * ) SI_UNIT ( .MILLI., .METRE. ) );
#69 = CARTESIAN_POINT ( 'NONE',  ( 0.0000000000000000000, 0.0000000000000000000, 0.0000000000000000000 ) ) ;
#70 = APPROVAL_STATUS ( 'not_yet_approved' ) ;
#71 = DIRECTION ( 'NONE',  ( 1.000000000000000000, 0.0000000000000000000, 0.0000000000000000000 ) ) ;
#72 = APPROVAL_PERSON_ORGANIZATION ( #117, #153, #57 ) ;
#73 = PLANE ( 'NONE',  #222 ) ;
#74 = EDGE_CURVE ( 'NONE', #230, #137, #96, .T. ) ;
#75 = FACE_OUTER_BOUND ( 'NONE', #50, .T. ) ;
#76 = ORIENTED_EDGE ( 'NONE', *, *, #228, .F. ) ;
#77 = PRODUCT_DEFINITION_FORMATION_WITH_SPECIFIED_SOURCE ( 'ANY', '', #16, .NOT_KNOWN. ) ;
#78 = EDGE_CURVE ( 'NONE', #214, #114, #41, .T. ) ;
#79 = ORIENTED_EDGE ( 'NONE', *, *, #38, .T. ) ;
#80 = CC_DESIGN_APPROVAL ( #20, ( #169 ) ) ;
#81 = ORIENTED_EDGE ( 'NONE', *, *, #151, .T. ) ;
#82 = CARTESIAN_POINT ( 'NONE',  ( 12.49999999999999800, 12.50000000000000400, -4.750000000000000000 ) ) ;
#83 = LOCAL_TIME ( 9, 9, 13.00000000000000000, #6 ) ;
#84 = AXIS2_PLACEMENT_3D ( 'NONE', #207, #4, #106 ) ;
#85 = DIRECTION ( 'NONE',  ( 0.0000000000000000000, 0.0000000000000000000, 1.000000000000000000 ) ) ;
#86 = LINE ( 'NONE', #225, #155 ) ;
#87 = DIRECTION ( 'NONE',  ( -0.0000000000000000000, -0.0000000000000000000, -1.000000000000000000 ) ) ;
#88 = ADVANCED_FACE ( 'NONE', ( #136 ), #44, .T. ) ;
#89 = FACE_OUTER_BOUND ( 'NONE', #188, .T. ) ;
#90 = ORIENTED_EDGE ( 'NONE', *, *, #146, .T. ) ;
#91 = APPROVAL_ROLE ( '' ) ;
#92 =( NAMED_UNIT ( * ) PLANE_ANGLE_UNIT ( ) SI_UNIT ( $, .RADIAN. ) );
#93 = AXIS2_PLACEMENT_3D ( 'NONE', #26, #64, #85 ) ;
#94 = DATE_AND_TIME ( #15, #83 ) ;
#95 = APPROVAL_STATUS ( 'not_yet_approved' ) ;
#96 = LINE ( 'NONE', #141, #173 ) ;
#97 = ORIENTED_EDGE ( 'NONE', *, *, #236, .T. ) ;
#98 = CC_DESIGN_PERSON_AND_ORGANIZATION_ASSIGNMENT ( #186, #53, ( #77 ) ) ;
#99 = VECTOR ( 'NONE', #210, 1000.000000000000000 ) ;
#100 =( GEOMETRIC_REPRESENTATION_CONTEXT ( 3 ) GLOBAL_UNCERTAINTY_ASSIGNED_CONTEXT ( ( #21 ) ) GLOBAL_UNIT_ASSIGNED_CONTEXT ( ( #68, #92, #195 ) ) REPRESENTATION_CONTEXT ( 'NONE', 'WORKASPACE' ) );
#101 = VECTOR ( 'NONE', #179, 1000.000000000000000 ) ;
#102 = ORIENTED_EDGE ( 'NONE', *, *, #74, .F. ) ;
#103 = PLANE ( 'NONE',  #84 ) ;
#104 = CARTESIAN_POINT ( 'NONE',  ( -12.50000000000000200, -12.50000000000000000, -4.750000000000000000 ) ) ;
#105 = SECURITY_CLASSIFICATION ( '', '', #150 ) ;
#106 = DIRECTION ( 'NONE',  ( 1.000000000000000000, 1.387778780781445700E-016, 0.0000000000000000000 ) ) ;
#107 = DIRECTION ( 'NONE',  ( -0.0000000000000000000, -0.0000000000000000000, -1.000000000000000000 ) ) ;
#108 = ADVANCED_FACE ( 'NONE', ( #89 ), #103, .F. ) ;
#109 = DIRECTION ( 'NONE',  ( 0.0000000000000000000, 0.0000000000000000000, -1.000000000000000000 ) ) ;
#110 = PERSON_AND_ORGANIZATION ( #170, #1 ) ;
#111 = DIRECTION ( 'NONE',  ( -1.000000000000000000, -1.387778780781445700E-016, 0.0000000000000000000 ) ) ;
#112 = DIRECTION ( 'NONE',  ( 1.000000000000000000, 0.0000000000000000000, 0.0000000000000000000 ) ) ;
#113 = PRODUCT_DEFINITION_SHAPE ( 'NONE', 'NONE',  #169 ) ;
#114 = VERTEX_POINT ( 'NONE', #82 ) ;
#115 = APPROVAL_PERSON_ORGANIZATION ( #110, #18, #35 ) ;
#116 = LOCAL_TIME ( 9, 9, 13.00000000000000000, #205 ) ;
#117 = PERSON_AND_ORGANIZATION ( #170, #1 ) ;
#118 = ORIENTED_EDGE ( 'NONE', *, *, #39, .F. ) ;
#119 = CC_DESIGN_DATE_AND_TIME_ASSIGNMENT ( #213, #234, ( #105 ) ) ;
#120 = DESIGN_CONTEXT ( 'detailed design', #232, 'design' ) ;
#121 = PERSON_AND_ORGANIZATION ( #170, #1 ) ;
#122 = ORIENTED_EDGE ( 'NONE', *, *, #172, .T. ) ;
#123 = CARTESIAN_POINT ( 'NONE',  ( -12.50000000000000200, -12.50000000000000000, 4.750000000000000000 ) ) ;
#124 = APPROVAL_DATE_TIME ( #94, #18 ) ;
#125 = CALENDAR_DATE ( 2017, 30, 10 ) ;
#126 = DIRECTION ( 'NONE',  ( 1.000000000000000000, 0.0000000000000000000, -0.0000000000000000000 ) ) ;
#127 = CARTESIAN_POINT ( 'NONE',  ( 12.49999999999999800, -12.49999999999999600, 4.750000000000000000 ) ) ;
#128 = LINE ( 'NONE', #211, #193 ) ;
#129 = PERSON_AND_ORGANIZATION_ROLE ( 'design_supplier' ) ;
#130 = CC_DESIGN_SECURITY_CLASSIFICATION ( #105, ( #77 ) ) ;
#131 = APPROVAL_PERSON_ORGANIZATION ( #36, #20, #91 ) ;
#132 = VERTEX_POINT ( 'NONE', #220 ) ;
#133 = AXIS2_PLACEMENT_3D ( 'NONE', #127, #162, #144 ) ;
#134 = ORIENTED_EDGE ( 'NONE', *, *, #175, .T. ) ;
#135 = PERSON_AND_ORGANIZATION ( #170, #1 ) ;
#136 = FACE_OUTER_BOUND ( 'NONE', #23, .T. ) ;
#137 = VERTEX_POINT ( 'NONE', #66 ) ;
#138 = PLANE ( 'NONE',  #47 ) ;
#139 = PRODUCT_RELATED_PRODUCT_CATEGORY ( 'detail', '', ( #16 ) ) ;
#140 = DIRECTION ( 'NONE',  ( -0.0000000000000000000, -1.000000000000000000, -0.0000000000000000000 ) ) ;
#141 = CARTESIAN_POINT ( 'NONE',  ( 12.49999999999999800, -12.49999999999999600, 4.750000000000000000 ) ) ;
#142 = FACE_OUTER_BOUND ( 'NONE', #201, .T. ) ;
#143 = CARTESIAN_POINT ( 'NONE',  ( 12.49999999999999800, 12.50000000000000400, 4.750000000000000000 ) ) ;
#144 = DIRECTION ( 'NONE',  ( -1.000000000000000000, -1.387778780781445700E-016, 0.0000000000000000000 ) ) ;
#145 = MECHANICAL_CONTEXT ( 'NONE', #198, 'mechanical' ) ;
#146 = EDGE_CURVE ( 'NONE', #132, #34, #233, .T. ) ;
#147 = APPROVAL_STATUS ( 'not_yet_approved' ) ;
#148 = PERSON_AND_ORGANIZATION_ROLE ( 'creator' ) ;
#149 = DATE_AND_TIME ( #62, #202 ) ;
#150 = SECURITY_CLASSIFICATION_LEVEL ( 'unclassified' ) ;
#151 = EDGE_CURVE ( 'NONE', #214, #171, #55, .T. ) ;
#152 = FACE_OUTER_BOUND ( 'NONE', #221, .T. ) ;
#153 = APPROVAL ( #95, 'UNSPECIFIED' ) ;
#154 = ORIENTED_EDGE ( 'NONE', *, *, #175, .F. ) ;
#155 = VECTOR ( 'NONE', #163, 1000.000000000000000 ) ;
#156 = DIRECTION ( 'NONE',  ( -0.0000000000000000000, -0.0000000000000000000, -1.000000000000000000 ) ) ;
#157 = EDGE_LOOP ( 'NONE', ( #177, #235, #118, #19 ) ) ;
#158 = CARTESIAN_POINT ( 'NONE',  ( 12.49999999999999800, 12.50000000000000400, 4.750000000000000000 ) ) ;
#159 = CALENDAR_DATE ( 2017, 30, 10 ) ;
#160 = CC_DESIGN_DATE_AND_TIME_ASSIGNMENT ( #61, #9, ( #169 ) ) ;
#161 = CARTESIAN_POINT ( 'NONE',  ( -12.50000000000000200, -12.50000000000000000, 4.750000000000000000 ) ) ;
#162 = DIRECTION ( 'NONE',  ( -1.387778780781445700E-016, 1.000000000000000000, 0.0000000000000000000 ) ) ;
#163 = DIRECTION ( 'NONE',  ( 1.000000000000000000, 1.387778780781445700E-016, -0.0000000000000000000 ) ) ;
#164 = PERSON_AND_ORGANIZATION ( #170, #1 ) ;
#165 = ORIENTED_EDGE ( 'NONE', *, *, #185, .T. ) ;
#166 = ADVANCED_FACE ( 'NONE', ( #142 ), #138, .F. ) ;
#167 = DIRECTION ( 'NONE',  ( 0.0000000000000000000, 1.000000000000000000, 0.0000000000000000000 ) ) ;
#168 = DATE_AND_TIME ( #159, #181 ) ;
#169 = PRODUCT_DEFINITION ( 'UNKNOWN', '', #77, #120 ) ;
#170 = PERSON ( 'UNSPECIFIED', 'UNSPECIFIED', 'UNSPECIFIED', ('UNSPECIFIED'), ('UNSPECIFIED'), ('UNSPECIFIED') ) ;
#171 = VERTEX_POINT ( 'NONE', #208 ) ;
#172 = EDGE_CURVE ( 'NONE', #196, #34, #219, .T. ) ;
#173 = VECTOR ( 'NONE', #156, 1000.000000000000000 ) ;
#174 = ORIENTED_EDGE ( 'NONE', *, *, #236, .F. ) ;
#175 = EDGE_CURVE ( 'NONE', #171, #132, #17, .T. ) ;
#176 = LINE ( 'NONE', #212, #99 ) ;
#177 = ORIENTED_EDGE ( 'NONE', *, *, #146, .F. ) ;
#178 = PLANE ( 'NONE',  #93 ) ;
#179 = DIRECTION ( 'NONE',  ( -0.0000000000000000000, -0.0000000000000000000, -1.000000000000000000 ) ) ;
#180 = APPLICATION_PROTOCOL_DEFINITION ( 'international standard', 'config_control_design', 1994, #232 ) ;
#181 = LOCAL_TIME ( 9, 9, 13.00000000000000000, #209 ) ;
#182 = ORIENTED_EDGE ( 'NONE', *, *, #151, .F. ) ;
#183 = CC_DESIGN_APPROVAL ( #18, ( #77 ) ) ;
#184 = CARTESIAN_POINT ( 'NONE',  ( 12.49999999999999800, 12.50000000000000400, 4.750000000000000000 ) ) ;
#185 = EDGE_CURVE ( 'NONE', #34, #137, #86, .T. ) ;
#186 = PERSON_AND_ORGANIZATION ( #170, #1 ) ;
#187 = SHAPE_DEFINITION_REPRESENTATION ( #113, #14 ) ;
#188 = EDGE_LOOP ( 'NONE', ( #79, #154, #182, #63 ) ) ;
#189 = ORIENTED_EDGE ( 'NONE', *, *, #74, .T. ) ;
#190 = DIRECTION ( 'NONE',  ( 1.000000000000000000, 0.0000000000000000000, -0.0000000000000000000 ) ) ;
#191 = EDGE_CURVE ( 'NONE', #196, #230, #176, .T. ) ;
#192 = ADVANCED_FACE ( 'NONE', ( #237 ), #73, .F. ) ;
#193 = VECTOR ( 'NONE', #167, 1000.000000000000000 ) ;
#194 = DIRECTION ( 'NONE',  ( 0.0000000000000000000, -0.0000000000000000000, 1.000000000000000000 ) ) ;
#195 =( NAMED_UNIT ( * ) SI_UNIT ( $, .STERADIAN. ) SOLID_ANGLE_UNIT ( ) );
#196 = VERTEX_POINT ( 'NONE', #161 ) ;
#197 = CARTESIAN_POINT ( 'NONE',  ( -12.50000000000000200, -12.50000000000000000, 4.750000000000000000 ) ) ;
#198 = APPLICATION_CONTEXT ( 'configuration controlled 3d designs of mechanical parts and assemblies' ) ;
#199 = PERSON_AND_ORGANIZATION_ROLE ( 'classification_officer' ) ;
#200 = COORDINATED_UNIVERSAL_TIME_OFFSET ( 5, 0, .BEHIND. ) ;
#201 = EDGE_LOOP ( 'NONE', ( #90, #37, #76, #134 ) ) ;
#202 = LOCAL_TIME ( 9, 9, 13.00000000000000000, #200 ) ;
#203 = VECTOR ( 'NONE', #107, 1000.000000000000000 ) ;
#204 = PERSON_AND_ORGANIZATION ( #170, #1 ) ;
#205 = COORDINATED_UNIVERSAL_TIME_OFFSET ( 5, 0, .BEHIND. ) ;
#206 = ORIENTED_EDGE ( 'NONE', *, *, #228, .T. ) ;
#207 = CARTESIAN_POINT ( 'NONE',  ( 12.49999999999999800, 12.50000000000000400, 4.750000000000000000 ) ) ;
#208 = CARTESIAN_POINT ( 'NONE',  ( -12.50000000000000200, 12.50000000000000000, 4.750000000000000000 ) ) ;
#209 = COORDINATED_UNIVERSAL_TIME_OFFSET ( 5, 0, .BEHIND. ) ;
#210 = DIRECTION ( 'NONE',  ( 1.000000000000000000, 1.387778780781445700E-016, -0.0000000000000000000 ) ) ;
#211 = CARTESIAN_POINT ( 'NONE',  ( 12.49999999999999800, -12.49999999999999600, 4.750000000000000000 ) ) ;
#212 = CARTESIAN_POINT ( 'NONE',  ( 12.49999999999999800, -12.49999999999999600, 4.750000000000000000 ) ) ;
#213 = DATE_AND_TIME ( #125, #12 ) ;
#214 = VERTEX_POINT ( 'NONE', #143 ) ;
#215 = VECTOR ( 'NONE', #111, 1000.000000000000000 ) ;
#216 = VECTOR ( 'NONE', #28, 1000.000000000000000 ) ;
#217 = ORIENTED_EDGE ( 'NONE', *, *, #39, .T. ) ;
#218 = LINE ( 'NONE', #224, #216 ) ;
#219 = LINE ( 'NONE', #123, #67 ) ;
#220 = CARTESIAN_POINT ( 'NONE',  ( -12.50000000000000200, 12.50000000000000000, -4.750000000000000000 ) ) ;
#221 = EDGE_LOOP ( 'NONE', ( #217, #29, #174, #189 ) ) ;
#222 = AXIS2_PLACEMENT_3D ( 'NONE', #231, #11, #126 ) ;
#223 = DIRECTION ( 'NONE',  ( 0.0000000000000000000, 1.000000000000000000, 0.0000000000000000000 ) ) ;
#224 = CARTESIAN_POINT ( 'NONE',  ( 12.49999999999999800, 12.50000000000000400, -4.750000000000000000 ) ) ;
#225 = CARTESIAN_POINT ( 'NONE',  ( 12.49999999999999800, -12.49999999999999600, -4.750000000000000000 ) ) ;
#226 = CARTESIAN_POINT ( 'NONE',  ( -12.50000000000000200, 12.50000000000000000, 4.750000000000000000 ) ) ;
#227 = ADVANCED_FACE ( 'NONE', ( #75 ), #5, .F. ) ;
#228 = EDGE_CURVE ( 'NONE', #171, #196, #49, .T. ) ;
#229 = CALENDAR_DATE ( 2017, 30, 10 ) ;
#230 = VERTEX_POINT ( 'NONE', #48 ) ;
#231 = CARTESIAN_POINT ( 'NONE',  ( 0.0000000000000000000, 0.0000000000000000000, -4.750000000000000000 ) ) ;
#232 = APPLICATION_CONTEXT ( 'configuration controlled 3d designs of mechanical parts and assemblies' ) ;
#233 = LINE ( 'NONE', #104, #46 ) ;
#234 = DATE_TIME_ROLE ( 'classification_date' ) ;
#235 = ORIENTED_EDGE ( 'NONE', *, *, #38, .F. ) ;
#236 = EDGE_CURVE ( 'NONE', #230, #214, #128, .T. ) ;
#237 = FACE_OUTER_BOUND ( 'NONE', #157, .T. ) ;
ENDSEC;
END-ISO-10303-21;
