ISO-10303-21;
HEADER;
FILE_DESCRIPTION (( 'STEP AP203' ),
    '1' );
FILE_NAME ('step_32505.step',
    '2014-06-05T19:28:09',
    ( '' ),
    ( '' ),
    'SwSTEP 2.0',
    'SolidWorks 2014',
    '' );
FILE_SCHEMA (( 'CONFIG_CONTROL_DESIGN' ));
ENDSEC;

DATA;
#1 = CARTESIAN_POINT ( 'NONE',  ( 25.00000000000000000, 25.00000000000000000, 0.0000000000000000000 ) ) ;
#2 = CARTESIAN_POINT ( 'NONE',  ( 0.0000000000000000000, 0.0000000000000000000, 25.00000000000000000 ) ) ;
#3 = CARTESIAN_POINT ( 'NONE',  ( 0.0000000000000000000, 0.0000000000000000000, 0.0000000000000000000 ) ) ;
#4 = DATE_AND_TIME ( #305, #106 ) ;
#5 = DESIGN_CONTEXT ( 'detailed design', #183, 'design' ) ;
#6 = CARTESIAN_POINT ( 'NONE',  ( 25.00000000000000000, 25.00000000000000000, 0.0000000000000000000 ) ) ;
#7 = DIRECTION ( 'NONE',  ( -1.000000000000000000, 0.0000000000000000000, 0.0000000000000000000 ) ) ;
#8 = DIRECTION ( 'NONE',  ( -0.0000000000000000000, -0.0000000000000000000, -1.000000000000000000 ) ) ;
#9 = CARTESIAN_POINT ( 'NONE',  ( 0.0000000000000000000, 0.0000000000000000000, 0.0000000000000000000 ) ) ;
#10 = ORIENTED_EDGE ( 'NONE', *, *, #295, .T. ) ;
#11 = EDGE_LOOP ( 'NONE', ( #121, #152, #15, #82 ) ) ;
#12 = CC_DESIGN_PERSON_AND_ORGANIZATION_ASSIGNMENT ( #58, #251, ( #30 ) ) ;
#13 = DIRECTION ( 'NONE',  ( -0.0000000000000000000, -0.0000000000000000000, -1.000000000000000000 ) ) ;
#14 = ADVANCED_FACE ( 'NONE', ( #298 ), #122, .F. ) ;
#15 = ORIENTED_EDGE ( 'NONE', *, *, #266, .F. ) ;
#16 = DIRECTION ( 'NONE',  ( -1.000000000000000000, -4.287420733907394200E-017, 0.0000000000000000000 ) ) ;
#17 = COORDINATED_UNIVERSAL_TIME_OFFSET ( 7, 0, .BEHIND. ) ;
#18 = CLOSED_SHELL ( 'NONE', ( #162, #228, #254, #116, #141 ) ) ;
#19 = CARTESIAN_POINT ( 'NONE',  ( 0.0000000000000000000, 25.00000000000000000, 25.00000000000000000 ) ) ;
#20 = DIRECTION ( 'NONE',  ( -1.387778780781445700E-016, 1.000000000000000000, -0.0000000000000000000 ) ) ;
#21 = APPROVAL_DATE_TIME ( #105, #97 ) ;
#22 = CARTESIAN_POINT ( 'NONE',  ( 25.00000000000000400, 1.071855183476848500E-015, 25.00000000000000000 ) ) ;
#23 = DIRECTION ( 'NONE',  ( 1.000000000000000000, 0.0000000000000000000, -0.0000000000000000000 ) ) ;
#24 = CARTESIAN_POINT ( 'NONE',  ( 25.00000000000000400, 1.071855183476848500E-015, 0.0000000000000000000 ) ) ;
#25 = MANIFOLD_SOLID_BREP ( 'Boss-Extrude1', #18 ) ;
#26 = EDGE_LOOP ( 'NONE', ( #135, #308, #138 ) ) ;
#27 = CARTESIAN_POINT ( 'NONE',  ( 0.0000000000000000000, 0.0000000000000000000, 25.00000000000000000 ) ) ;
#28 = CALENDAR_DATE ( 2014, 5, 6 ) ;
#29 = CARTESIAN_POINT ( 'NONE',  ( 25.00000000000000000, 25.00000000000000000, 25.00000000000000000 ) ) ;
#30 = SECURITY_CLASSIFICATION ( '', '', #250 ) ;
#31 = VECTOR ( 'NONE', #259, 1000.000000000000000 ) ;
#32 = CARTESIAN_POINT ( 'NONE',  ( 25.00000000000000400, 1.071855183476848500E-015, 25.00000000000000000 ) ) ;
#33 = CC_DESIGN_PERSON_AND_ORGANIZATION_ASSIGNMENT ( #50, #241, ( #67 ) ) ;
#34 = CARTESIAN_POINT ( 'NONE',  ( 0.0000000000000000000, 25.00000000000000000, 25.00000000000000000 ) ) ;
#35 = LINE ( 'NONE', #81, #56 ) ;
#36 = CARTESIAN_POINT ( 'NONE',  ( 25.00000000000000000, 25.00000000000000000, 25.00000000000000000 ) ) ;
#37 = CC_DESIGN_PERSON_AND_ORGANIZATION_ASSIGNMENT ( #320, #238, ( #67 ) ) ;
#38 = PLANE ( 'NONE',  #144 ) ;
#39 = DIRECTION ( 'NONE',  ( -1.000000000000000000, -1.387778780781445700E-016, 0.0000000000000000000 ) ) ;
#40 = ADVANCED_FACE ( 'NONE', ( #318 ), #207, .T. ) ;
#41 = VECTOR ( 'NONE', #289, 1000.000000000000000 ) ;
#42 = COORDINATED_UNIVERSAL_TIME_OFFSET ( 7, 0, .BEHIND. ) ;
#43 = VECTOR ( 'NONE', #87, 1000.000000000000100 ) ;
#44 = EDGE_CURVE ( 'NONE', #293, #53, #35, .T. ) ;
#45 = LINE ( 'NONE', #2, #31 ) ;
#46 = EDGE_LOOP ( 'NONE', ( #233, #134, #278, #181 ) ) ;
#47 = DIRECTION ( 'NONE',  ( 1.387778780781445700E-016, -1.000000000000000000, 0.0000000000000000000 ) ) ;
#48 = LINE ( 'NONE', #88, #263 ) ;
#49 = LINE ( 'NONE', #303, #102 ) ;
#50 = PERSON_AND_ORGANIZATION ( #146, #62 ) ;
#51 = ORIENTED_EDGE ( 'NONE', *, *, #287, .F. ) ;
#52 =( LENGTH_UNIT ( ) NAMED_UNIT ( * ) SI_UNIT ( .MILLI., .METRE. ) );
#53 = VERTEX_POINT ( 'NONE', #129 ) ;
#54 = CARTESIAN_POINT ( 'NONE',  ( 25.00000000000000000, 25.00000000000000000, 25.00000000000000000 ) ) ;
#55 = VECTOR ( 'NONE', #281, 1000.000000000000000 ) ;
#56 = VECTOR ( 'NONE', #78, 1000.000000000000000 ) ;
#57 = CC_DESIGN_APPROVAL ( #63, ( #67 ) ) ;
#58 = PERSON_AND_ORGANIZATION ( #146, #62 ) ;
#59 = CARTESIAN_POINT ( 'NONE',  ( 25.00000000000000000, 25.00000000000000000, 25.00000000000000000 ) ) ;
#60 = EDGE_CURVE ( 'NONE', #173, #292, #74, .T. ) ;
#61 = EDGE_CURVE ( 'NONE', #164, #91, #48, .T. ) ;
#62 = ORGANIZATION ( 'UNSPECIFIED', 'UNSPECIFIED', '' ) ;
#63 = APPROVAL ( #234, 'UNSPECIFIED' ) ;
#64 = DIRECTION ( 'NONE',  ( -0.0000000000000000000, -0.0000000000000000000, -1.000000000000000000 ) ) ;
#65 = CARTESIAN_POINT ( 'NONE',  ( 0.0000000000000000000, 25.00000000000000000, 0.0000000000000000000 ) ) ;
#66 = CARTESIAN_POINT ( 'NONE',  ( 0.0000000000000000000, 0.0000000000000000000, 0.0000000000000000000 ) ) ;
#67 = PRODUCT_DEFINITION_FORMATION_WITH_SPECIFIED_SOURCE ( 'ANY', '', #120, .NOT_KNOWN. ) ;
#68 = CC_DESIGN_DATE_AND_TIME_ASSIGNMENT ( #4, #79, ( #109 ) ) ;
#69 = DIRECTION ( 'NONE',  ( 0.0000000000000000000, 0.0000000000000000000, -1.000000000000000000 ) ) ;
#70 = PLANE ( 'NONE',  #213 ) ;
#71 = DIRECTION ( 'NONE',  ( 0.7071067811865474600, 0.7071067811865474600, -0.0000000000000000000 ) ) ;
#72 = EDGE_LOOP ( 'NONE', ( #209, #268, #127 ) ) ;
#73 = CC_DESIGN_PERSON_AND_ORGANIZATION_ASSIGNMENT ( #211, #286, ( #109 ) ) ;
#74 = LINE ( 'NONE', #36, #94 ) ;
#75 = VECTOR ( 'NONE', #214, 1000.000000000000100 ) ;
#76 = LINE ( 'NONE', #27, #317 ) ;
#77 = EDGE_CURVE ( 'NONE', #292, #140, #258, .T. ) ;
#78 = DIRECTION ( 'NONE',  ( -0.0000000000000000000, -1.000000000000000000, -0.0000000000000000000 ) ) ;
#79 = DATE_TIME_ROLE ( 'creation_date' ) ;
#80 = DATE_AND_TIME ( #28, #166 ) ;
#81 = CARTESIAN_POINT ( 'NONE',  ( 0.0000000000000000000, 0.0000000000000000000, 25.00000000000000000 ) ) ;
#82 = ORIENTED_EDGE ( 'NONE', *, *, #60, .T. ) ;
#83 = DIRECTION ( 'NONE',  ( 1.000000000000000000, 4.287420733907393600E-017, -0.0000000000000000000 ) ) ;
#84 = LINE ( 'NONE', #319, #193 ) ;
#85 = CARTESIAN_POINT ( 'NONE',  ( 25.00000000000000400, 1.071855183476848500E-015, 25.00000000000000000 ) ) ;
#86 = CALENDAR_DATE ( 2014, 5, 6 ) ;
#87 = DIRECTION ( 'NONE',  ( 0.7071067811865474600, 0.7071067811865474600, -0.0000000000000000000 ) ) ;
#88 = CARTESIAN_POINT ( 'NONE',  ( 0.0000000000000000000, 25.00000000000000000, 0.0000000000000000000 ) ) ;
#89 = DIRECTION ( 'NONE',  ( 0.0000000000000000000, -1.000000000000000000, 0.0000000000000000000 ) ) ;
#90 = CC_DESIGN_APPROVAL ( #97, ( #109 ) ) ;
#91 = VERTEX_POINT ( 'NONE', #65 ) ;
#92 = DIRECTION ( 'NONE',  ( 1.000000000000000000, 0.0000000000000000000, -0.0000000000000000000 ) ) ;
#93 = FACE_OUTER_BOUND ( 'NONE', #26, .T. ) ;
#94 = VECTOR ( 'NONE', #321, 1000.000000000000000 ) ;
#95 = VERTEX_POINT ( 'NONE', #309 ) ;
#96 = LOCAL_TIME ( 12, 28, 9.000000000000000000, #17 ) ;
#97 = APPROVAL ( #301, 'UNSPECIFIED' ) ;
#98 = ORIENTED_EDGE ( 'NONE', *, *, #284, .T. ) ;
#99 = DIRECTION ( 'NONE',  ( -0.7071067811865474600, -0.7071067811865474600, -0.0000000000000000000 ) ) ;
#100 = DIRECTION ( 'NONE',  ( -0.7071067811865475700, 0.7071067811865475700, 0.0000000000000000000 ) ) ;
#101 = ADVANCED_FACE ( 'NONE', ( #139 ), #313, .F. ) ;
#102 = VECTOR ( 'NONE', #216, 1000.000000000000000 ) ;
#103 = PERSON_AND_ORGANIZATION ( #146, #62 ) ;
#104 = ORIENTED_EDGE ( 'NONE', *, *, #284, .F. ) ;
#105 = DATE_AND_TIME ( #147, #96 ) ;
#106 = LOCAL_TIME ( 12, 28, 9.000000000000000000, #299 ) ;
#107 = VERTEX_POINT ( 'NONE', #22 ) ;
#108 = EDGE_CURVE ( 'NONE', #107, #173, #124, .T. ) ;
#109 = PRODUCT_DEFINITION ( 'UNKNOWN', '', #67, #5 ) ;
#110 = ORIENTED_EDGE ( 'NONE', *, *, #231, .F. ) ;
#111 = LINE ( 'NONE', #235, #311 ) ;
#112 = CC_DESIGN_PERSON_AND_ORGANIZATION_ASSIGNMENT ( #291, #215, ( #120 ) ) ;
#113 = FACE_OUTER_BOUND ( 'NONE', #244, .T. ) ;
#114 = AXIS2_PLACEMENT_3D ( 'NONE', #66, #300, #196 ) ;
#115 = CC_DESIGN_SECURITY_CLASSIFICATION ( #30, ( #67 ) ) ;
#116 = ADVANCED_FACE ( 'NONE', ( #93 ), #223, .F. ) ;
#117 = ORIENTED_EDGE ( 'NONE', *, *, #224, .F. ) ;
#118 = CC_DESIGN_APPROVAL ( #157, ( #30 ) ) ;
#119 = CARTESIAN_POINT ( 'NONE',  ( 25.00000000000000000, 25.00000000000000000, 0.0000000000000000000 ) ) ;
#120 = PRODUCT ( 'step_32505', 'step_32505', '', ( #149 ) ) ;
#121 = ORIENTED_EDGE ( 'NONE', *, *, #77, .T. ) ;
#122 = PLANE ( 'NONE',  #210 ) ;
#123 = VECTOR ( 'NONE', #71, 1000.000000000000100 ) ;
#124 = LINE ( 'NONE', #132, #219 ) ;
#125 = FACE_OUTER_BOUND ( 'NONE', #165, .T. ) ;
#126 = VECTOR ( 'NONE', #128, 1000.000000000000000 ) ;
#127 = ORIENTED_EDGE ( 'NONE', *, *, #266, .T. ) ;
#128 = DIRECTION ( 'NONE',  ( -1.387778780781445700E-016, 1.000000000000000000, -0.0000000000000000000 ) ) ;
#129 = CARTESIAN_POINT ( 'NONE',  ( 0.0000000000000000000, 0.0000000000000000000, 25.00000000000000000 ) ) ;
#130 = APPROVAL_DATE_TIME ( #167, #63 ) ;
#131 = CLOSED_SHELL ( 'NONE', ( #101, #310, #14, #40, #201 ) ) ;
#132 = CARTESIAN_POINT ( 'NONE',  ( 25.00000000000000000, 25.00000000000000000, 25.00000000000000000 ) ) ;
#133 = PLANE ( 'NONE',  #200 ) ;
#134 = ORIENTED_EDGE ( 'NONE', *, *, #192, .F. ) ;
#135 = ORIENTED_EDGE ( 'NONE', *, *, #137, .T. ) ;
#136 = ORIENTED_EDGE ( 'NONE', *, *, #315, .F. ) ;
#137 = EDGE_CURVE ( 'NONE', #53, #260, #203, .T. ) ;
#138 = ORIENTED_EDGE ( 'NONE', *, *, #44, .T. ) ;
#139 = FACE_OUTER_BOUND ( 'NONE', #252, .T. ) ;
#140 = VERTEX_POINT ( 'NONE', #304 ) ;
#141 = ADVANCED_FACE ( 'NONE', ( #125 ), #70, .T. ) ;
#142 = VERTEX_POINT ( 'NONE', #161 ) ;
#143 = APPROVAL_DATE_TIME ( #80, #157 ) ;
#144 = AXIS2_PLACEMENT_3D ( 'NONE', #29, #39, #47 ) ;
#145 = ORIENTED_EDGE ( 'NONE', *, *, #77, .F. ) ;
#146 = PERSON ( 'UNSPECIFIED', 'UNSPECIFIED', 'UNSPECIFIED', ('UNSPECIFIED'), ('UNSPECIFIED'), ('UNSPECIFIED') ) ;
#147 = CALENDAR_DATE ( 2014, 5, 6 ) ;
#148 = ORIENTED_EDGE ( 'NONE', *, *, #248, .F. ) ;
#149 = MECHANICAL_CONTEXT ( 'NONE', #226, 'mechanical' ) ;
#150 = CARTESIAN_POINT ( 'NONE',  ( 25.00000000000000400, 1.071855183476848500E-015, 25.00000000000000000 ) ) ;
#151 = FACE_OUTER_BOUND ( 'NONE', #46, .T. ) ;
#152 = ORIENTED_EDGE ( 'NONE', *, *, #230, .F. ) ;
#153 = ORIENTED_EDGE ( 'NONE', *, *, #248, .T. ) ;
#154 =( NAMED_UNIT ( * ) PLANE_ANGLE_UNIT ( ) SI_UNIT ( $, .RADIAN. ) );
#155 = FACE_OUTER_BOUND ( 'NONE', #199, .T. ) ;
#156 =( GEOMETRIC_REPRESENTATION_CONTEXT ( 3 ) GLOBAL_UNCERTAINTY_ASSIGNED_CONTEXT ( ( #220 ) ) GLOBAL_UNIT_ASSIGNED_CONTEXT ( ( #52, #154, #190 ) ) REPRESENTATION_CONTEXT ( 'NONE', 'WORKASPACE' ) );
#157 = APPROVAL ( #265, 'UNSPECIFIED' ) ;
#158 = LINE ( 'NONE', #3, #41 ) ;
#159 = APPROVAL_PERSON_ORGANIZATION ( #312, #97, #225 ) ;
#160 = PLANE ( 'NONE',  #179 ) ;
#161 = CARTESIAN_POINT ( 'NONE',  ( 0.0000000000000000000, 0.0000000000000000000, 0.0000000000000000000 ) ) ;
#162 = ADVANCED_FACE ( 'NONE', ( #151 ), #133, .F. ) ;
#163 = AXIS2_PLACEMENT_3D ( 'NONE', #227, #221, #243 ) ;
#164 = VERTEX_POINT ( 'NONE', #1 ) ;
#165 = EDGE_LOOP ( 'NONE', ( #285, #280, #306 ) ) ;
#166 = LOCAL_TIME ( 12, 28, 9.000000000000000000, #249 ) ;
#167 = DATE_AND_TIME ( #86, #267 ) ;
#168 = ADVANCED_BREP_SHAPE_REPRESENTATION ( 'step_32505', ( #25, #288, #114 ), #156 ) ;
#169 = DIRECTION ( 'NONE',  ( 0.0000000000000000000, 0.0000000000000000000, 1.000000000000000000 ) ) ;
#170 = AXIS2_PLACEMENT_3D ( 'NONE', #272, #262, #92 ) ;
#171 = SHAPE_DEFINITION_REPRESENTATION ( #180, #168 ) ;
#172 = EDGE_LOOP ( 'NONE', ( #148, #145, #51 ) ) ;
#173 = VERTEX_POINT ( 'NONE', #59 ) ;
#174 = PERSON_AND_ORGANIZATION ( #146, #62 ) ;
#175 = ORIENTED_EDGE ( 'NONE', *, *, #230, .T. ) ;
#176 = CC_DESIGN_DATE_AND_TIME_ASSIGNMENT ( #290, #264, ( #30 ) ) ;
#177 = APPLICATION_PROTOCOL_DEFINITION ( 'international standard', 'config_control_design', 1994, #183 ) ;
#178 = ORIENTED_EDGE ( 'NONE', *, *, #287, .T. ) ;
#179 = AXIS2_PLACEMENT_3D ( 'NONE', #256, #89, #236 ) ;
#180 = PRODUCT_DEFINITION_SHAPE ( 'NONE', 'NONE',  #109 ) ;
#181 = ORIENTED_EDGE ( 'NONE', *, *, #315, .T. ) ;
#182 = COORDINATED_UNIVERSAL_TIME_OFFSET ( 7, 0, .BEHIND. ) ;
#183 = APPLICATION_CONTEXT ( 'configuration controlled 3d designs of mechanical parts and assemblies' ) ;
#184 = AXIS2_PLACEMENT_3D ( 'NONE', #302, #169, #23 ) ;
#185 = ORIENTED_EDGE ( 'NONE', *, *, #192, .T. ) ;
#186 = ORIENTED_EDGE ( 'NONE', *, *, #60, .F. ) ;
#187 = ORIENTED_EDGE ( 'NONE', *, *, #108, .F. ) ;
#188 = LINE ( 'NONE', #34, #55 ) ;
#189 = LINE ( 'NONE', #32, #202 ) ;
#190 =( NAMED_UNIT ( * ) SI_UNIT ( $, .STERADIAN. ) SOLID_ANGLE_UNIT ( ) );
#191 = FACE_OUTER_BOUND ( 'NONE', #172, .T. ) ;
#192 = EDGE_CURVE ( 'NONE', #260, #164, #270, .T. ) ;
#193 = VECTOR ( 'NONE', #279, 1000.000000000000000 ) ;
#194 = EDGE_LOOP ( 'NONE', ( #178, #186, #187, #245 ) ) ;
#195 = LINE ( 'NONE', #150, #212 ) ;
#196 = DIRECTION ( 'NONE',  ( 1.000000000000000000, 0.0000000000000000000, 0.0000000000000000000 ) ) ;
#197 = DIRECTION ( 'NONE',  ( -1.000000000000000000, -0.0000000000000000000, -0.0000000000000000000 ) ) ;
#198 = DIRECTION ( 'NONE',  ( -4.287420733907394200E-017, 1.000000000000000000, 0.0000000000000000000 ) ) ;
#199 = EDGE_LOOP ( 'NONE', ( #10, #136, #218, #98 ) ) ;
#200 = AXIS2_PLACEMENT_3D ( 'NONE', #206, #100, #273 ) ;
#201 = ADVANCED_FACE ( 'NONE', ( #191 ), #276, .F. ) ;
#202 = VECTOR ( 'NONE', #83, 1000.000000000000000 ) ;
#203 = LINE ( 'NONE', #296, #43 ) ;
#204 = LOCAL_TIME ( 12, 28, 9.000000000000000000, #42 ) ;
#205 = VECTOR ( 'NONE', #8, 1000.000000000000000 ) ;
#206 = CARTESIAN_POINT ( 'NONE',  ( 25.00000000000000000, 25.00000000000000000, 25.00000000000000000 ) ) ;
#207 = PLANE ( 'NONE',  #170 ) ;
#208 = PLANE ( 'NONE',  #163 ) ;
#209 = ORIENTED_EDGE ( 'NONE', *, *, #269, .T. ) ;
#210 = AXIS2_PLACEMENT_3D ( 'NONE', #239, #261, #271 ) ;
#211 = PERSON_AND_ORGANIZATION ( #146, #62 ) ;
#212 = VECTOR ( 'NONE', #13, 1000.000000000000000 ) ;
#213 = AXIS2_PLACEMENT_3D ( 'NONE', #307, #69, #294 ) ;
#214 = DIRECTION ( 'NONE',  ( -0.7071067811865474600, -0.7071067811865474600, -0.0000000000000000000 ) ) ;
#215 = PERSON_AND_ORGANIZATION_ROLE ( 'design_owner' ) ;
#216 = DIRECTION ( 'NONE',  ( -0.0000000000000000000, -0.0000000000000000000, -1.000000000000000000 ) ) ;
#217 = CARTESIAN_POINT ( 'NONE',  ( 0.0000000000000000000, 0.0000000000000000000, 25.00000000000000000 ) ) ;
#218 = ORIENTED_EDGE ( 'NONE', *, *, #44, .F. ) ;
#219 = VECTOR ( 'NONE', #20, 1000.000000000000000 ) ;
#220 = UNCERTAINTY_MEASURE_WITH_UNIT (LENGTH_MEASURE( 1.000000000000000100E-005 ), #52, 'distance_accuracy_value', 'NONE');
#221 = DIRECTION ( 'NONE',  ( 1.000000000000000000, 0.0000000000000000000, 0.0000000000000000000 ) ) ;
#222 = ORIENTED_EDGE ( 'NONE', *, *, #61, .T. ) ;
#223 = PLANE ( 'NONE',  #257 ) ;
#224 = EDGE_CURVE ( 'NONE', #107, #314, #195, .T. ) ;
#225 = APPROVAL_ROLE ( '' ) ;
#226 = APPLICATION_CONTEXT ( 'configuration controlled 3d designs of mechanical parts and assemblies' ) ;
#227 = CARTESIAN_POINT ( 'NONE',  ( 0.0000000000000000000, 0.0000000000000000000, 25.00000000000000000 ) ) ;
#228 = ADVANCED_FACE ( 'NONE', ( #113 ), #160, .F. ) ;
#229 = CARTESIAN_POINT ( 'NONE',  ( 25.00000000000000000, 25.00000000000000000, 25.00000000000000000 ) ) ;
#230 = EDGE_CURVE ( 'NONE', #95, #140, #45, .T. ) ;
#231 = EDGE_CURVE ( 'NONE', #260, #293, #188, .T. ) ;
#232 = APPROVAL_PERSON_ORGANIZATION ( #103, #157, #275 ) ;
#233 = ORIENTED_EDGE ( 'NONE', *, *, #246, .T. ) ;
#234 = APPROVAL_STATUS ( 'not_yet_approved' ) ;
#235 = CARTESIAN_POINT ( 'NONE',  ( 0.0000000000000000000, 0.0000000000000000000, 25.00000000000000000 ) ) ;
#236 = DIRECTION ( 'NONE',  ( 0.0000000000000000000, -0.0000000000000000000, -1.000000000000000000 ) ) ;
#237 = APPROVAL_ROLE ( '' ) ;
#238 = PERSON_AND_ORGANIZATION_ROLE ( 'creator' ) ;
#239 = CARTESIAN_POINT ( 'NONE',  ( 0.0000000000000000000, 0.0000000000000000000, 25.00000000000000000 ) ) ;
#240 = FACE_OUTER_BOUND ( 'NONE', #194, .T. ) ;
#241 = PERSON_AND_ORGANIZATION_ROLE ( 'design_supplier' ) ;
#242 = ORIENTED_EDGE ( 'NONE', *, *, #269, .F. ) ;
#243 = DIRECTION ( 'NONE',  ( 0.0000000000000000000, 0.0000000000000000000, -1.000000000000000000 ) ) ;
#244 = EDGE_LOOP ( 'NONE', ( #222, #104, #110, #185 ) ) ;
#245 = ORIENTED_EDGE ( 'NONE', *, *, #224, .T. ) ;
#246 = EDGE_CURVE ( 'NONE', #142, #164, #316, .T. ) ;
#247 = DIRECTION ( 'NONE',  ( 0.0000000000000000000, 0.0000000000000000000, -1.000000000000000000 ) ) ;
#248 = EDGE_CURVE ( 'NONE', #140, #314, #84, .T. ) ;
#249 = COORDINATED_UNIVERSAL_TIME_OFFSET ( 7, 0, .BEHIND. ) ;
#250 = SECURITY_CLASSIFICATION_LEVEL ( 'unclassified' ) ;
#251 = PERSON_AND_ORGANIZATION_ROLE ( 'classification_officer' ) ;
#252 = EDGE_LOOP ( 'NONE', ( #153, #117, #242, #175 ) ) ;
#253 = AXIS2_PLACEMENT_3D ( 'NONE', #85, #198, #16 ) ;
#254 = ADVANCED_FACE ( 'NONE', ( #155 ), #208, .F. ) ;
#255 = CARTESIAN_POINT ( 'NONE',  ( 25.00000000000000000, 25.00000000000000000, 0.0000000000000000000 ) ) ;
#256 = CARTESIAN_POINT ( 'NONE',  ( 0.0000000000000000000, 25.00000000000000000, 25.00000000000000000 ) ) ;
#257 = AXIS2_PLACEMENT_3D ( 'NONE', #217, #247, #7 ) ;
#258 = LINE ( 'NONE', #9, #75 ) ;
#259 = DIRECTION ( 'NONE',  ( -0.0000000000000000000, -0.0000000000000000000, -1.000000000000000000 ) ) ;
#260 = VERTEX_POINT ( 'NONE', #229 ) ;
#261 = DIRECTION ( 'NONE',  ( 0.7071067811865475700, -0.7071067811865475700, 0.0000000000000000000 ) ) ;
#262 = DIRECTION ( 'NONE',  ( 0.0000000000000000000, 0.0000000000000000000, 1.000000000000000000 ) ) ;
#263 = VECTOR ( 'NONE', #197, 1000.000000000000000 ) ;
#264 = DATE_TIME_ROLE ( 'classification_date' ) ;
#265 = APPROVAL_STATUS ( 'not_yet_approved' ) ;
#266 = EDGE_CURVE ( 'NONE', #173, #95, #111, .T. ) ;
#267 = LOCAL_TIME ( 12, 28, 9.000000000000000000, #182 ) ;
#268 = ORIENTED_EDGE ( 'NONE', *, *, #108, .T. ) ;
#269 = EDGE_CURVE ( 'NONE', #95, #107, #189, .T. ) ;
#270 = LINE ( 'NONE', #54, #205 ) ;
#271 = DIRECTION ( 'NONE',  ( 0.7071067811865474600, 0.7071067811865474600, 0.0000000000000000000 ) ) ;
#272 = CARTESIAN_POINT ( 'NONE',  ( 0.0000000000000000000, 0.0000000000000000000, 25.00000000000000000 ) ) ;
#273 = DIRECTION ( 'NONE',  ( -0.7071067811865474600, -0.7071067811865474600, 0.0000000000000000000 ) ) ;
#274 = PRODUCT_RELATED_PRODUCT_CATEGORY ( 'detail', '', ( #120 ) ) ;
#275 = APPROVAL_ROLE ( '' ) ;
#276 = PLANE ( 'NONE',  #184 ) ;
#277 = APPROVAL_PERSON_ORGANIZATION ( #174, #63, #237 ) ;
#278 = ORIENTED_EDGE ( 'NONE', *, *, #137, .F. ) ;
#279 = DIRECTION ( 'NONE',  ( 1.000000000000000000, 4.287420733907393600E-017, -0.0000000000000000000 ) ) ;
#280 = ORIENTED_EDGE ( 'NONE', *, *, #295, .F. ) ;
#281 = DIRECTION ( 'NONE',  ( -1.000000000000000000, -0.0000000000000000000, -0.0000000000000000000 ) ) ;
#282 = APPLICATION_PROTOCOL_DEFINITION ( 'international standard', 'config_control_design', 1994, #226 ) ;
#283 = CALENDAR_DATE ( 2014, 5, 6 ) ;
#284 = EDGE_CURVE ( 'NONE', #293, #91, #49, .T. ) ;
#285 = ORIENTED_EDGE ( 'NONE', *, *, #246, .F. ) ;
#286 = PERSON_AND_ORGANIZATION_ROLE ( 'creator' ) ;
#287 = EDGE_CURVE ( 'NONE', #314, #292, #297, .T. ) ;
#288 = MANIFOLD_SOLID_BREP ( 'Boss-Extrude2', #131 ) ;
#289 = DIRECTION ( 'NONE',  ( -0.0000000000000000000, -1.000000000000000000, -0.0000000000000000000 ) ) ;
#290 = DATE_AND_TIME ( #283, #204 ) ;
#291 = PERSON_AND_ORGANIZATION ( #146, #62 ) ;
#292 = VERTEX_POINT ( 'NONE', #6 ) ;
#293 = VERTEX_POINT ( 'NONE', #19 ) ;
#294 = DIRECTION ( 'NONE',  ( -1.000000000000000000, 0.0000000000000000000, 0.0000000000000000000 ) ) ;
#295 = EDGE_CURVE ( 'NONE', #91, #142, #158, .T. ) ;
#296 = CARTESIAN_POINT ( 'NONE',  ( 25.00000000000000000, 25.00000000000000000, 25.00000000000000000 ) ) ;
#297 = LINE ( 'NONE', #119, #126 ) ;
#298 = FACE_OUTER_BOUND ( 'NONE', #11, .T. ) ;
#299 = COORDINATED_UNIVERSAL_TIME_OFFSET ( 7, 0, .BEHIND. ) ;
#300 = DIRECTION ( 'NONE',  ( 0.0000000000000000000, 0.0000000000000000000, 1.000000000000000000 ) ) ;
#301 = APPROVAL_STATUS ( 'not_yet_approved' ) ;
#302 = CARTESIAN_POINT ( 'NONE',  ( 0.0000000000000000000, 0.0000000000000000000, 0.0000000000000000000 ) ) ;
#303 = CARTESIAN_POINT ( 'NONE',  ( 0.0000000000000000000, 25.00000000000000000, 25.00000000000000000 ) ) ;
#304 = CARTESIAN_POINT ( 'NONE',  ( 0.0000000000000000000, 0.0000000000000000000, 0.0000000000000000000 ) ) ;
#305 = CALENDAR_DATE ( 2014, 5, 6 ) ;
#306 = ORIENTED_EDGE ( 'NONE', *, *, #61, .F. ) ;
#307 = CARTESIAN_POINT ( 'NONE',  ( 0.0000000000000000000, 0.0000000000000000000, 0.0000000000000000000 ) ) ;
#308 = ORIENTED_EDGE ( 'NONE', *, *, #231, .T. ) ;
#309 = CARTESIAN_POINT ( 'NONE',  ( 0.0000000000000000000, 0.0000000000000000000, 25.00000000000000000 ) ) ;
#310 = ADVANCED_FACE ( 'NONE', ( #240 ), #38, .F. ) ;
#311 = VECTOR ( 'NONE', #99, 1000.000000000000100 ) ;
#312 = PERSON_AND_ORGANIZATION ( #146, #62 ) ;
#313 = PLANE ( 'NONE',  #253 ) ;
#314 = VERTEX_POINT ( 'NONE', #24 ) ;
#315 = EDGE_CURVE ( 'NONE', #53, #142, #76, .T. ) ;
#316 = LINE ( 'NONE', #255, #123 ) ;
#317 = VECTOR ( 'NONE', #64, 1000.000000000000000 ) ;
#318 = FACE_OUTER_BOUND ( 'NONE', #72, .T. ) ;
#319 = CARTESIAN_POINT ( 'NONE',  ( 25.00000000000000400, 1.071855183476848500E-015, 0.0000000000000000000 ) ) ;
#320 = PERSON_AND_ORGANIZATION ( #146, #62 ) ;
#321 = DIRECTION ( 'NONE',  ( -0.0000000000000000000, -0.0000000000000000000, -1.000000000000000000 ) ) ;
ENDSEC;
END-ISO-10303-21;
