ISO-10303-21;
HEADER;
FILE_DESCRIPTION (( 'STEP AP203' ),
    '1' );
FILE_NAME ('Web Model 17600_17600.step',
    '2021-06-14T14:04:04',
    ( '' ),
    ( '' ),
    'SwSTEP 2.0',
    'SolidWorks 2018',
    '' );
FILE_SCHEMA (( 'CONFIG_CONTROL_DESIGN' ));
ENDSEC;

DATA;
#1 = CARTESIAN_POINT ( 'NONE',  ( 0.000000000000000000, 0.000000000000000000, 2.000000000000000000 ) ) ;
#2 = PLANE ( 'NONE',  #42 ) ;
#3 = CIRCLE ( 'NONE', #17, 6.349999999999999645 ) ;
#4 = CARTESIAN_POINT ( 'NONE',  ( 6.349999999999999645, 7.776507174585692163E-16, 0.000000000000000000 ) ) ;
#5 = CC_DESIGN_PERSON_AND_ORGANIZATION_ASSIGNMENT ( #65, #156, ( #34 ) ) ;
#6 = PERSON_AND_ORGANIZATION_ROLE ( 'creator' ) ;
#7 = CARTESIAN_POINT ( 'NONE',  ( -6.349999999999999645, 0.000000000000000000, 2.000000000000000000 ) ) ;
#8 = PERSON_AND_ORGANIZATION ( #64, #52 ) ;
#9 = APPROVAL_STATUS ( 'not_yet_approved' ) ;
#10 = DIRECTION ( 'NONE',  ( 1.000000000000000000, 0.000000000000000000, 0.000000000000000000 ) ) ;
#11 = CC_DESIGN_SECURITY_CLASSIFICATION ( #89, ( #115 ) ) ;
#12 = CLOSED_SHELL ( 'NONE', ( #154, #37, #91, #49 ) ) ;
#13 = LINE ( 'NONE', #133, #138 ) ;
#14 = PERSON_AND_ORGANIZATION ( #64, #52 ) ;
#15 = ORIENTED_EDGE ( 'NONE', *, *, #172, .T. ) ;
#16 = APPROVAL_DATE_TIME ( #163, #30 ) ;
#17 = AXIS2_PLACEMENT_3D ( 'NONE', #118, #82, #167 ) ;
#18 = DIRECTION ( 'NONE',  ( -0.000000000000000000, -0.000000000000000000, -1.000000000000000000 ) ) ;
#19 = LOCAL_TIME ( 10, 4, 4.000000000000000000, #126 ) ;
#20 = EDGE_LOOP ( 'NONE', ( #119, #15, #55, #151 ) ) ;
#21 = DATE_TIME_ROLE ( 'classification_date' ) ;
#22 = CALENDAR_DATE ( 2021, 14, 6 ) ;
#23 = MECHANICAL_CONTEXT ( 'NONE', #171, 'mechanical' ) ;
#24 = AXIS2_PLACEMENT_3D ( 'NONE', #105, #53, #38 ) ;
#25 = APPROVAL_PERSON_ORGANIZATION ( #94, #155, #95 ) ;
#26 = APPLICATION_PROTOCOL_DEFINITION ( 'international standard', 'config_control_design', 1994, #171 ) ;
#27 = LOCAL_TIME ( 10, 4, 4.000000000000000000, #150 ) ;
#28 = CIRCLE ( 'NONE', #103, 6.349999999999999645 ) ;
#29 = APPROVAL_PERSON_ORGANIZATION ( #54, #139, #121 ) ;
#30 = APPROVAL ( #122, 'UNSPECIFIED' ) ;
#31 = FACE_OUTER_BOUND ( 'NONE', #128, .T. ) ;
#32 = EDGE_CURVE ( 'NONE', #88, #99, #3, .T. ) ;
#33 = CC_DESIGN_DATE_AND_TIME_ASSIGNMENT ( #78, #21, ( #89 ) ) ;
#34 = PRODUCT ( 'Web Model 17600_17600', 'Web Model 17600_17600', '', ( #23 ) ) ;
#35 = DIRECTION ( 'NONE',  ( 0.000000000000000000, 0.000000000000000000, 1.000000000000000000 ) ) ;
#36 = COORDINATED_UNIVERSAL_TIME_OFFSET ( 5, 0, .BEHIND. ) ;
#37 = ADVANCED_FACE ( 'NONE', ( #149 ), #93, .T. ) ;
#38 = DIRECTION ( 'NONE',  ( -1.000000000000000000, 0.000000000000000000, 0.000000000000000000 ) ) ;
#39 = SHAPE_DEFINITION_REPRESENTATION ( #74, #164 ) ;
#40 = ORIENTED_EDGE ( 'NONE', *, *, #172, .F. ) ;
#41 = DIRECTION ( 'NONE',  ( -0.000000000000000000, -0.000000000000000000, -1.000000000000000000 ) ) ;
#42 = AXIS2_PLACEMENT_3D ( 'NONE', #1, #168, #106 ) ;
#43 =( LENGTH_UNIT ( ) NAMED_UNIT ( * ) SI_UNIT ( .MILLI., .METRE. ) );
#44 = CALENDAR_DATE ( 2021, 14, 6 ) ;
#45 = CARTESIAN_POINT ( 'NONE',  ( 0.000000000000000000, 0.000000000000000000, 0.000000000000000000 ) ) ;
#46 = EDGE_LOOP ( 'NONE', ( #40, #84, #124, #50 ) ) ;
#47 = CC_DESIGN_APPROVAL ( #155, ( #165 ) ) ;
#48 = DESIGN_CONTEXT ( 'detailed design', #75, 'design' ) ;
#49 = ADVANCED_FACE ( 'NONE', ( #31 ), #153, .F. ) ;
#50 = ORIENTED_EDGE ( 'NONE', *, *, #32, .T. ) ;
#51 = AXIS2_PLACEMENT_3D ( 'NONE', #57, #69, #160 ) ;
#52 = ORGANIZATION ( 'UNSPECIFIED', 'UNSPECIFIED', '' ) ;
#53 = DIRECTION ( 'NONE',  ( -0.000000000000000000, -0.000000000000000000, -1.000000000000000000 ) ) ;
#54 = PERSON_AND_ORGANIZATION ( #64, #52 ) ;
#55 = ORIENTED_EDGE ( 'NONE', *, *, #109, .T. ) ;
#56 = APPROVAL_DATE_TIME ( #112, #155 ) ;
#57 = CARTESIAN_POINT ( 'NONE',  ( 0.000000000000000000, 0.000000000000000000, 0.000000000000000000 ) ) ;
#58 = CC_DESIGN_APPROVAL ( #30, ( #115 ) ) ;
#59 = PERSON_AND_ORGANIZATION_ROLE ( 'creator' ) ;
#60 = VERTEX_POINT ( 'NONE', #67 ) ;
#61 = COORDINATED_UNIVERSAL_TIME_OFFSET ( 5, 0, .BEHIND. ) ;
#62 = ORIENTED_EDGE ( 'NONE', *, *, #32, .F. ) ;
#63 = LOCAL_TIME ( 10, 4, 4.000000000000000000, #152 ) ;
#64 = PERSON ( 'UNSPECIFIED', 'UNSPECIFIED', 'UNSPECIFIED', ('UNSPECIFIED'), ('UNSPECIFIED'), ('UNSPECIFIED') ) ;
#65 = PERSON_AND_ORGANIZATION ( #64, #52 ) ;
#66 = CIRCLE ( 'NONE', #51, 6.349999999999999645 ) ;
#67 = CARTESIAN_POINT ( 'NONE',  ( -6.349999999999999645, 0.000000000000000000, 2.000000000000000000 ) ) ;
#68 = DIRECTION ( 'NONE',  ( 0.000000000000000000, 0.000000000000000000, 1.000000000000000000 ) ) ;
#69 = DIRECTION ( 'NONE',  ( 0.000000000000000000, 0.000000000000000000, 1.000000000000000000 ) ) ;
#70 = APPROVAL_ROLE ( '' ) ;
#71 = DIRECTION ( 'NONE',  ( -0.000000000000000000, -0.000000000000000000, -1.000000000000000000 ) ) ;
#72 = PERSON_AND_ORGANIZATION ( #64, #52 ) ;
#73 = UNCERTAINTY_MEASURE_WITH_UNIT (LENGTH_MEASURE( 1.000000000000000082E-05 ), #43, 'distance_accuracy_value', 'NONE');
#74 = PRODUCT_DEFINITION_SHAPE ( 'NONE', 'NONE',  #165 ) ;
#75 = APPLICATION_CONTEXT ( 'configuration controlled 3d designs of mechanical parts and assemblies' ) ;
#76 = CC_DESIGN_APPROVAL ( #139, ( #89 ) ) ;
#77 = EDGE_CURVE ( 'NONE', #90, #60, #144, .T. ) ;
#78 = DATE_AND_TIME ( #137, #140 ) ;
#79 = ORIENTED_EDGE ( 'NONE', *, *, #109, .F. ) ;
#80 = CC_DESIGN_PERSON_AND_ORGANIZATION_ASSIGNMENT ( #72, #59, ( #115 ) ) ;
#81 = DIRECTION ( 'NONE',  ( 1.000000000000000000, 0.000000000000000000, -0.000000000000000000 ) ) ;
#82 = DIRECTION ( 'NONE',  ( 0.000000000000000000, 0.000000000000000000, 1.000000000000000000 ) ) ;
#83 = CARTESIAN_POINT ( 'NONE',  ( 6.349999999999999645, 7.776507174585692163E-16, 2.000000000000000000 ) ) ;
#84 = ORIENTED_EDGE ( 'NONE', *, *, #116, .F. ) ;
#85 = DIRECTION ( 'NONE',  ( 0.000000000000000000, 0.000000000000000000, 1.000000000000000000 ) ) ;
#86 = DIRECTION ( 'NONE',  ( -1.000000000000000000, 0.000000000000000000, 0.000000000000000000 ) ) ;
#87 = APPROVAL_STATUS ( 'not_yet_approved' ) ;
#88 = VERTEX_POINT ( 'NONE', #130 ) ;
#89 = SECURITY_CLASSIFICATION ( '', '', #98 ) ;
#90 = VERTEX_POINT ( 'NONE', #83 ) ;
#91 = ADVANCED_FACE ( 'NONE', ( #102 ), #2, .T. ) ;
#92 = APPROVAL_DATE_TIME ( #170, #139 ) ;
#93 = CYLINDRICAL_SURFACE ( 'NONE', #24, 6.349999999999999645 ) ;
#94 = PERSON_AND_ORGANIZATION ( #64, #52 ) ;
#95 = APPROVAL_ROLE ( '' ) ;
#96 = PERSON_AND_ORGANIZATION ( #64, #52 ) ;
#97 = CALENDAR_DATE ( 2021, 14, 6 ) ;
#98 = SECURITY_CLASSIFICATION_LEVEL ( 'unclassified' ) ;
#99 = VERTEX_POINT ( 'NONE', #4 ) ;
#100 = AXIS2_PLACEMENT_3D ( 'NONE', #143, #68, #81 ) ;
#101 = LOCAL_TIME ( 10, 4, 4.000000000000000000, #36 ) ;
#102 = FACE_OUTER_BOUND ( 'NONE', #114, .T. ) ;
#103 = AXIS2_PLACEMENT_3D ( 'NONE', #158, #85, #132 ) ;
#104 = AXIS2_PLACEMENT_3D ( 'NONE', #142, #35, #129 ) ;
#105 = CARTESIAN_POINT ( 'NONE',  ( 0.000000000000000000, 0.000000000000000000, 2.000000000000000000 ) ) ;
#106 = DIRECTION ( 'NONE',  ( 1.000000000000000000, 0.000000000000000000, -0.000000000000000000 ) ) ;
#107 = CC_DESIGN_PERSON_AND_ORGANIZATION_ASSIGNMENT ( #8, #6, ( #165 ) ) ;
#108 = CARTESIAN_POINT ( 'NONE',  ( 0.000000000000000000, 0.000000000000000000, 2.000000000000000000 ) ) ;
#109 = EDGE_CURVE ( 'NONE', #99, #88, #66, .T. ) ;
#110 = DATE_TIME_ROLE ( 'creation_date' ) ;
#111 =( NAMED_UNIT ( * ) SI_UNIT ( $, .STERADIAN. ) SOLID_ANGLE_UNIT ( ) );
#112 = DATE_AND_TIME ( #175, #27 ) ;
#113 = CYLINDRICAL_SURFACE ( 'NONE', #125, 6.349999999999999645 ) ;
#114 = EDGE_LOOP ( 'NONE', ( #174, #166 ) ) ;
#115 = PRODUCT_DEFINITION_FORMATION_WITH_SPECIFIED_SOURCE ( 'ANY', '', #34, .NOT_KNOWN. ) ;
#116 = EDGE_CURVE ( 'NONE', #60, #90, #28, .T. ) ;
#117 = CC_DESIGN_PERSON_AND_ORGANIZATION_ASSIGNMENT ( #14, #135, ( #89 ) ) ;
#118 = CARTESIAN_POINT ( 'NONE',  ( 0.000000000000000000, 0.000000000000000000, 0.000000000000000000 ) ) ;
#119 = ORIENTED_EDGE ( 'NONE', *, *, #77, .F. ) ;
#120 =( NAMED_UNIT ( * ) PLANE_ANGLE_UNIT ( ) SI_UNIT ( $, .RADIAN. ) );
#121 = APPROVAL_ROLE ( '' ) ;
#122 = APPROVAL_STATUS ( 'not_yet_approved' ) ;
#123 = MANIFOLD_SOLID_BREP ( 'Boss-Extrude1', #12 ) ;
#124 = ORIENTED_EDGE ( 'NONE', *, *, #157, .T. ) ;
#125 = AXIS2_PLACEMENT_3D ( 'NONE', #108, #18, #86 ) ;
#126 = COORDINATED_UNIVERSAL_TIME_OFFSET ( 5, 0, .BEHIND. ) ;
#127 = VECTOR ( 'NONE', #71, 1000.000000000000000 ) ;
#128 = EDGE_LOOP ( 'NONE', ( #62, #79 ) ) ;
#129 = DIRECTION ( 'NONE',  ( 1.000000000000000000, 0.000000000000000000, 0.000000000000000000 ) ) ;
#130 = CARTESIAN_POINT ( 'NONE',  ( -6.349999999999999645, 0.000000000000000000, 0.000000000000000000 ) ) ;
#131 =( GEOMETRIC_REPRESENTATION_CONTEXT ( 3 ) GLOBAL_UNCERTAINTY_ASSIGNED_CONTEXT ( ( #73 ) ) GLOBAL_UNIT_ASSIGNED_CONTEXT ( ( #43, #120, #111 ) ) REPRESENTATION_CONTEXT ( 'NONE', 'WORKASPACE' ) );
#132 = DIRECTION ( 'NONE',  ( 1.000000000000000000, 0.000000000000000000, 0.000000000000000000 ) ) ;
#133 = CARTESIAN_POINT ( 'NONE',  ( 6.349999999999999645, 7.776507174585692163E-16, 2.000000000000000000 ) ) ;
#134 = AXIS2_PLACEMENT_3D ( 'NONE', #45, #147, #10 ) ;
#135 = PERSON_AND_ORGANIZATION_ROLE ( 'classification_officer' ) ;
#136 = LINE ( 'NONE', #7, #127 ) ;
#137 = CALENDAR_DATE ( 2021, 14, 6 ) ;
#138 = VECTOR ( 'NONE', #41, 1000.000000000000000 ) ;
#139 = APPROVAL ( #9, 'UNSPECIFIED' ) ;
#140 = LOCAL_TIME ( 10, 4, 4.000000000000000000, #61 ) ;
#141 = CC_DESIGN_DATE_AND_TIME_ASSIGNMENT ( #173, #110, ( #165 ) ) ;
#142 = CARTESIAN_POINT ( 'NONE',  ( 0.000000000000000000, 0.000000000000000000, 2.000000000000000000 ) ) ;
#143 = CARTESIAN_POINT ( 'NONE',  ( 0.000000000000000000, 0.000000000000000000, 0.000000000000000000 ) ) ;
#144 = CIRCLE ( 'NONE', #104, 6.349999999999999645 ) ;
#145 = PERSON_AND_ORGANIZATION_ROLE ( 'design_supplier' ) ;
#146 = CC_DESIGN_PERSON_AND_ORGANIZATION_ASSIGNMENT ( #161, #145, ( #115 ) ) ;
#147 = DIRECTION ( 'NONE',  ( 0.000000000000000000, 0.000000000000000000, 1.000000000000000000 ) ) ;
#148 = APPROVAL_PERSON_ORGANIZATION ( #96, #30, #70 ) ;
#149 = FACE_OUTER_BOUND ( 'NONE', #46, .T. ) ;
#150 = COORDINATED_UNIVERSAL_TIME_OFFSET ( 5, 0, .BEHIND. ) ;
#151 = ORIENTED_EDGE ( 'NONE', *, *, #157, .F. ) ;
#152 = COORDINATED_UNIVERSAL_TIME_OFFSET ( 5, 0, .BEHIND. ) ;
#153 = PLANE ( 'NONE',  #100 ) ;
#154 = ADVANCED_FACE ( 'NONE', ( #162 ), #113, .T. ) ;
#155 = APPROVAL ( #87, 'UNSPECIFIED' ) ;
#156 = PERSON_AND_ORGANIZATION_ROLE ( 'design_owner' ) ;
#157 = EDGE_CURVE ( 'NONE', #60, #88, #136, .T. ) ;
#158 = CARTESIAN_POINT ( 'NONE',  ( 0.000000000000000000, 0.000000000000000000, 2.000000000000000000 ) ) ;
#159 = APPLICATION_PROTOCOL_DEFINITION ( 'international standard', 'config_control_design', 1994, #75 ) ;
#160 = DIRECTION ( 'NONE',  ( 1.000000000000000000, 0.000000000000000000, 0.000000000000000000 ) ) ;
#161 = PERSON_AND_ORGANIZATION ( #64, #52 ) ;
#162 = FACE_OUTER_BOUND ( 'NONE', #20, .T. ) ;
#163 = DATE_AND_TIME ( #97, #19 ) ;
#164 = ADVANCED_BREP_SHAPE_REPRESENTATION ( 'Web Model 17600_17600', ( #123, #134 ), #131 ) ;
#165 = PRODUCT_DEFINITION ( 'UNKNOWN', '', #115, #48 ) ;
#166 = ORIENTED_EDGE ( 'NONE', *, *, #77, .T. ) ;
#167 = DIRECTION ( 'NONE',  ( 1.000000000000000000, 0.000000000000000000, 0.000000000000000000 ) ) ;
#168 = DIRECTION ( 'NONE',  ( 0.000000000000000000, 0.000000000000000000, 1.000000000000000000 ) ) ;
#169 = PRODUCT_RELATED_PRODUCT_CATEGORY ( 'detail', '', ( #34 ) ) ;
#170 = DATE_AND_TIME ( #22, #101 ) ;
#171 = APPLICATION_CONTEXT ( 'configuration controlled 3d designs of mechanical parts and assemblies' ) ;
#172 = EDGE_CURVE ( 'NONE', #90, #99, #13, .T. ) ;
#173 = DATE_AND_TIME ( #44, #63 ) ;
#174 = ORIENTED_EDGE ( 'NONE', *, *, #116, .T. ) ;
#175 = CALENDAR_DATE ( 2021, 14, 6 ) ;
ENDSEC;
END-ISO-10303-21;
