ISO-10303-21;
HEADER;
FILE_DESCRIPTION (( 'STEP AP203' ),
    '1' );
FILE_NAME ('Web Model 68157_20926.step',
    '2022-03-15T19:21:36',
    ( '' ),
    ( '' ),
    'SwSTEP 2.0',
    'SolidWorks 2021',
    '' );
FILE_SCHEMA (( 'CONFIG_CONTROL_DESIGN' ));
ENDSEC;

DATA;
#1 = LOCAL_TIME ( 15, 21, 36.00000000000000000, #161 ) ;
#2 = APPLICATION_CONTEXT ( 'configuration controlled 3d designs of mechanical parts and assemblies' ) ;
#3 = EDGE_CURVE ( 'NONE', #28, #136, #19, .T. ) ;
#4 = PERSON_AND_ORGANIZATION ( #38, #45 ) ;
#5 = CARTESIAN_POINT ( 'NONE',  ( 0.000000000000000000, 0.000000000000000000, 1.000000000000000000 ) ) ;
#6 = LINE ( 'NONE', #140, #166 ) ;
#7 = CARTESIAN_POINT ( 'NONE',  ( 0.000000000000000000, 0.000000000000000000, 1.000000000000000000 ) ) ;
#8 = SHAPE_DEFINITION_REPRESENTATION ( #14, #69 ) ;
#9 = LOCAL_TIME ( 15, 21, 36.00000000000000000, #164 ) ;
#10 = COORDINATED_UNIVERSAL_TIME_OFFSET ( 5, 0, .BEHIND. ) ;
#11 = PERSON_AND_ORGANIZATION ( #38, #45 ) ;
#12 = PERSON_AND_ORGANIZATION ( #38, #45 ) ;
#13 = APPROVAL_PERSON_ORGANIZATION ( #48, #66, #157 ) ;
#14 = PRODUCT_DEFINITION_SHAPE ( 'NONE', 'NONE',  #99 ) ;
#15 = CARTESIAN_POINT ( 'NONE',  ( 0.000000000000000000, 0.000000000000000000, 0.000000000000000000 ) ) ;
#16 = CC_DESIGN_PERSON_AND_ORGANIZATION_ASSIGNMENT ( #80, #97, ( #61 ) ) ;
#17 = EDGE_LOOP ( 'NONE', ( #115, #149, #57, #86 ) ) ;
#18 = ORIENTED_EDGE ( 'NONE', *, *, #87, .T. ) ;
#19 = CIRCLE ( 'NONE', #23, 6.349999999999999645 ) ;
#20 = CARTESIAN_POINT ( 'NONE',  ( -6.349999999999999645, 0.000000000000000000, 1.000000000000000000 ) ) ;
#21 = DIRECTION ( 'NONE',  ( -0.000000000000000000, -0.000000000000000000, -1.000000000000000000 ) ) ;
#22 = CARTESIAN_POINT ( 'NONE',  ( -6.349999999999999645, 0.000000000000000000, 0.000000000000000000 ) ) ;
#23 = AXIS2_PLACEMENT_3D ( 'NONE', #15, #70, #44 ) ;
#24 = DIRECTION ( 'NONE',  ( 0.000000000000000000, 0.000000000000000000, 1.000000000000000000 ) ) ;
#25 = FACE_OUTER_BOUND ( 'NONE', #148, .T. ) ;
#26 = CIRCLE ( 'NONE', #90, 6.349999999999999645 ) ;
#27 = PRODUCT ( 'Web Model 68157_20926', 'Web Model 68157_20926', '', ( #127 ) ) ;
#28 = VERTEX_POINT ( 'NONE', #71 ) ;
#29 = ORIENTED_EDGE ( 'NONE', *, *, #87, .F. ) ;
#30 = DIRECTION ( 'NONE',  ( 0.000000000000000000, 0.000000000000000000, 1.000000000000000000 ) ) ;
#31 = CARTESIAN_POINT ( 'NONE',  ( 6.349999999999999645, 7.776507174585692163E-16, 1.000000000000000000 ) ) ;
#32 = DIRECTION ( 'NONE',  ( -0.000000000000000000, -0.000000000000000000, -1.000000000000000000 ) ) ;
#33 = CC_DESIGN_DATE_AND_TIME_ASSIGNMENT ( #121, #85, ( #73 ) ) ;
#34 = LINE ( 'NONE', #154, #49 ) ;
#35 = AXIS2_PLACEMENT_3D ( 'NONE', #159, #24, #75 ) ;
#36 = DATE_AND_TIME ( #108, #9 ) ;
#37 = ADVANCED_FACE ( 'NONE', ( #46 ), #103, .T. ) ;
#38 = PERSON ( 'UNSPECIFIED', 'UNSPECIFIED', 'UNSPECIFIED', ('UNSPECIFIED'), ('UNSPECIFIED'), ('UNSPECIFIED') ) ;
#39 = PERSON_AND_ORGANIZATION_ROLE ( 'creator' ) ;
#40 = APPROVAL_DATE_TIME ( #52, #66 ) ;
#41 = APPROVAL_ROLE ( '' ) ;
#42 = APPROVAL_PERSON_ORGANIZATION ( #133, #130, #41 ) ;
#43 = CC_DESIGN_PERSON_AND_ORGANIZATION_ASSIGNMENT ( #11, #39, ( #99 ) ) ;
#44 = DIRECTION ( 'NONE',  ( 1.000000000000000000, 0.000000000000000000, 0.000000000000000000 ) ) ;
#45 = ORGANIZATION ( 'UNSPECIFIED', 'UNSPECIFIED', '' ) ;
#46 = FACE_OUTER_BOUND ( 'NONE', #175, .T. ) ;
#47 = FACE_OUTER_BOUND ( 'NONE', #152, .T. ) ;
#48 = PERSON_AND_ORGANIZATION ( #38, #45 ) ;
#49 = VECTOR ( 'NONE', #131, 1000.000000000000000 ) ;
#50 = CARTESIAN_POINT ( 'NONE',  ( 0.000000000000000000, 0.000000000000000000, 1.000000000000000000 ) ) ;
#51 =( NAMED_UNIT ( * ) SI_UNIT ( $, .STERADIAN. ) SOLID_ANGLE_UNIT ( ) );
#52 = DATE_AND_TIME ( #79, #114 ) ;
#53 = CALENDAR_DATE ( 2022, 15, 3 ) ;
#54 = CC_DESIGN_PERSON_AND_ORGANIZATION_ASSIGNMENT ( #170, #122, ( #73 ) ) ;
#55 = CC_DESIGN_SECURITY_CLASSIFICATION ( #73, ( #61 ) ) ;
#56 = EDGE_CURVE ( 'NONE', #112, #28, #6, .T. ) ;
#57 = ORIENTED_EDGE ( 'NONE', *, *, #3, .T. ) ;
#58 = ORIENTED_EDGE ( 'NONE', *, *, #160, .F. ) ;
#59 = CC_DESIGN_APPROVAL ( #66, ( #99 ) ) ;
#60 = DIRECTION ( 'NONE',  ( 0.000000000000000000, 0.000000000000000000, 1.000000000000000000 ) ) ;
#61 = PRODUCT_DEFINITION_FORMATION_WITH_SPECIFIED_SOURCE ( 'ANY', '', #27, .NOT_KNOWN. ) ;
#62 = CARTESIAN_POINT ( 'NONE',  ( 0.000000000000000000, 0.000000000000000000, 0.000000000000000000 ) ) ;
#63 = LOCAL_TIME ( 15, 21, 36.00000000000000000, #65 ) ;
#64 = DATE_AND_TIME ( #96, #1 ) ;
#65 = COORDINATED_UNIVERSAL_TIME_OFFSET ( 5, 0, .BEHIND. ) ;
#66 = APPROVAL ( #138, 'UNSPECIFIED' ) ;
#67 = AXIS2_PLACEMENT_3D ( 'NONE', #7, #21, #93 ) ;
#68 = ORIENTED_EDGE ( 'NONE', *, *, #3, .F. ) ;
#69 = ADVANCED_BREP_SHAPE_REPRESENTATION ( 'Web Model 68157_20926', ( #109, #35 ), #77 ) ;
#70 = DIRECTION ( 'NONE',  ( 0.000000000000000000, 0.000000000000000000, 1.000000000000000000 ) ) ;
#71 = CARTESIAN_POINT ( 'NONE',  ( 6.349999999999999645, 7.776507174585692163E-16, 0.000000000000000000 ) ) ;
#72 = ORIENTED_EDGE ( 'NONE', *, *, #160, .T. ) ;
#73 = SECURITY_CLASSIFICATION ( '', '', #145 ) ;
#74 = CC_DESIGN_PERSON_AND_ORGANIZATION_ASSIGNMENT ( #4, #117, ( #27 ) ) ;
#75 = DIRECTION ( 'NONE',  ( 1.000000000000000000, 0.000000000000000000, 0.000000000000000000 ) ) ;
#76 = FACE_OUTER_BOUND ( 'NONE', #17, .T. ) ;
#77 =( GEOMETRIC_REPRESENTATION_CONTEXT ( 3 ) GLOBAL_UNCERTAINTY_ASSIGNED_CONTEXT ( ( #124 ) ) GLOBAL_UNIT_ASSIGNED_CONTEXT ( ( #137, #169, #51 ) ) REPRESENTATION_CONTEXT ( 'NONE', 'WORKASPACE' ) );
#78 = DIRECTION ( 'NONE',  ( 1.000000000000000000, 0.000000000000000000, 0.000000000000000000 ) ) ;
#79 = CALENDAR_DATE ( 2022, 15, 3 ) ;
#80 = PERSON_AND_ORGANIZATION ( #38, #45 ) ;
#81 = DATE_AND_TIME ( #53, #63 ) ;
#82 = APPROVAL ( #146, 'UNSPECIFIED' ) ;
#83 = APPROVAL_DATE_TIME ( #64, #82 ) ;
#84 = APPROVAL_PERSON_ORGANIZATION ( #12, #82, #162 ) ;
#85 = DATE_TIME_ROLE ( 'classification_date' ) ;
#86 = ORIENTED_EDGE ( 'NONE', *, *, #151, .F. ) ;
#87 = EDGE_CURVE ( 'NONE', #136, #28, #165, .T. ) ;
#88 = VERTEX_POINT ( 'NONE', #20 ) ;
#89 = DIRECTION ( 'NONE',  ( 1.000000000000000000, 0.000000000000000000, -0.000000000000000000 ) ) ;
#90 = AXIS2_PLACEMENT_3D ( 'NONE', #50, #129, #92 ) ;
#91 = ADVANCED_FACE ( 'NONE', ( #76 ), #155, .T. ) ;
#92 = DIRECTION ( 'NONE',  ( 1.000000000000000000, 0.000000000000000000, 0.000000000000000000 ) ) ;
#93 = DIRECTION ( 'NONE',  ( -1.000000000000000000, 0.000000000000000000, 0.000000000000000000 ) ) ;
#94 = AXIS2_PLACEMENT_3D ( 'NONE', #153, #30, #89 ) ;
#95 = CARTESIAN_POINT ( 'NONE',  ( 0.000000000000000000, 0.000000000000000000, 0.000000000000000000 ) ) ;
#96 = CALENDAR_DATE ( 2022, 15, 3 ) ;
#97 = PERSON_AND_ORGANIZATION_ROLE ( 'creator' ) ;
#98 = APPROVAL_STATUS ( 'not_yet_approved' ) ;
#99 = PRODUCT_DEFINITION ( 'UNKNOWN', '', #61, #173 ) ;
#100 = LOCAL_TIME ( 15, 21, 36.00000000000000000, #10 ) ;
#101 = ORIENTED_EDGE ( 'NONE', *, *, #56, .F. ) ;
#102 = PRODUCT_RELATED_PRODUCT_CATEGORY ( 'detail', '', ( #27 ) ) ;
#103 = PLANE ( 'NONE',  #94 ) ;
#104 = DIRECTION ( 'NONE',  ( -0.000000000000000000, -0.000000000000000000, -1.000000000000000000 ) ) ;
#105 = CYLINDRICAL_SURFACE ( 'NONE', #141, 6.349999999999999645 ) ;
#106 = CLOSED_SHELL ( 'NONE', ( #91, #171, #37, #139 ) ) ;
#107 = APPLICATION_PROTOCOL_DEFINITION ( 'international standard', 'config_control_design', 1994, #2 ) ;
#108 = CALENDAR_DATE ( 2022, 15, 3 ) ;
#109 = MANIFOLD_SOLID_BREP ( 'Boss-Extrude1', #106 ) ;
#110 = CIRCLE ( 'NONE', #123, 6.349999999999999645 ) ;
#111 = CC_DESIGN_APPROVAL ( #130, ( #73 ) ) ;
#112 = VERTEX_POINT ( 'NONE', #31 ) ;
#113 = ORIENTED_EDGE ( 'NONE', *, *, #125, .T. ) ;
#114 = LOCAL_TIME ( 15, 21, 36.00000000000000000, #128 ) ;
#115 = ORIENTED_EDGE ( 'NONE', *, *, #125, .F. ) ;
#116 = DIRECTION ( 'NONE',  ( 0.000000000000000000, 0.000000000000000000, 1.000000000000000000 ) ) ;
#117 = PERSON_AND_ORGANIZATION_ROLE ( 'design_owner' ) ;
#118 = DIRECTION ( 'NONE',  ( 1.000000000000000000, 0.000000000000000000, -0.000000000000000000 ) ) ;
#119 = DIRECTION ( 'NONE',  ( -1.000000000000000000, 0.000000000000000000, 0.000000000000000000 ) ) ;
#120 = PERSON_AND_ORGANIZATION_ROLE ( 'design_supplier' ) ;
#121 = DATE_AND_TIME ( #144, #100 ) ;
#122 = PERSON_AND_ORGANIZATION_ROLE ( 'classification_officer' ) ;
#123 = AXIS2_PLACEMENT_3D ( 'NONE', #132, #167, #78 ) ;
#124 = UNCERTAINTY_MEASURE_WITH_UNIT (LENGTH_MEASURE( 1.000000000000000082E-05 ), #137, 'distance_accuracy_value', 'NONE');
#125 = EDGE_CURVE ( 'NONE', #112, #88, #110, .T. ) ;
#126 = ORIENTED_EDGE ( 'NONE', *, *, #151, .T. ) ;
#127 = MECHANICAL_CONTEXT ( 'NONE', #2, 'mechanical' ) ;
#128 = COORDINATED_UNIVERSAL_TIME_OFFSET ( 5, 0, .BEHIND. ) ;
#129 = DIRECTION ( 'NONE',  ( 0.000000000000000000, 0.000000000000000000, 1.000000000000000000 ) ) ;
#130 = APPROVAL ( #98, 'UNSPECIFIED' ) ;
#131 = DIRECTION ( 'NONE',  ( -0.000000000000000000, -0.000000000000000000, -1.000000000000000000 ) ) ;
#132 = CARTESIAN_POINT ( 'NONE',  ( 0.000000000000000000, 0.000000000000000000, 1.000000000000000000 ) ) ;
#133 = PERSON_AND_ORGANIZATION ( #38, #45 ) ;
#134 = AXIS2_PLACEMENT_3D ( 'NONE', #62, #60, #142 ) ;
#135 = APPROVAL_DATE_TIME ( #36, #130 ) ;
#136 = VERTEX_POINT ( 'NONE', #22 ) ;
#137 =( LENGTH_UNIT ( ) NAMED_UNIT ( * ) SI_UNIT ( .MILLI., .METRE. ) );
#138 = APPROVAL_STATUS ( 'not_yet_approved' ) ;
#139 = ADVANCED_FACE ( 'NONE', ( #25 ), #158, .F. ) ;
#140 = CARTESIAN_POINT ( 'NONE',  ( 6.349999999999999645, 7.776507174585692163E-16, 1.000000000000000000 ) ) ;
#141 = AXIS2_PLACEMENT_3D ( 'NONE', #5, #104, #119 ) ;
#142 = DIRECTION ( 'NONE',  ( 1.000000000000000000, 0.000000000000000000, 0.000000000000000000 ) ) ;
#143 = PERSON_AND_ORGANIZATION ( #38, #45 ) ;
#144 = CALENDAR_DATE ( 2022, 15, 3 ) ;
#145 = SECURITY_CLASSIFICATION_LEVEL ( 'unclassified' ) ;
#146 = APPROVAL_STATUS ( 'not_yet_approved' ) ;
#147 = CC_DESIGN_APPROVAL ( #82, ( #61 ) ) ;
#148 = EDGE_LOOP ( 'NONE', ( #29, #68 ) ) ;
#149 = ORIENTED_EDGE ( 'NONE', *, *, #56, .T. ) ;
#150 = AXIS2_PLACEMENT_3D ( 'NONE', #95, #116, #118 ) ;
#151 = EDGE_CURVE ( 'NONE', #88, #136, #34, .T. ) ;
#152 = EDGE_LOOP ( 'NONE', ( #101, #58, #126, #18 ) ) ;
#153 = CARTESIAN_POINT ( 'NONE',  ( 0.000000000000000000, 0.000000000000000000, 1.000000000000000000 ) ) ;
#154 = CARTESIAN_POINT ( 'NONE',  ( -6.349999999999999645, 0.000000000000000000, 1.000000000000000000 ) ) ;
#155 = CYLINDRICAL_SURFACE ( 'NONE', #67, 6.349999999999999645 ) ;
#156 = CC_DESIGN_DATE_AND_TIME_ASSIGNMENT ( #81, #163, ( #99 ) ) ;
#157 = APPROVAL_ROLE ( '' ) ;
#158 = PLANE ( 'NONE',  #150 ) ;
#159 = CARTESIAN_POINT ( 'NONE',  ( 0.000000000000000000, 0.000000000000000000, 0.000000000000000000 ) ) ;
#160 = EDGE_CURVE ( 'NONE', #88, #112, #26, .T. ) ;
#161 = COORDINATED_UNIVERSAL_TIME_OFFSET ( 5, 0, .BEHIND. ) ;
#162 = APPROVAL_ROLE ( '' ) ;
#163 = DATE_TIME_ROLE ( 'creation_date' ) ;
#164 = COORDINATED_UNIVERSAL_TIME_OFFSET ( 5, 0, .BEHIND. ) ;
#165 = CIRCLE ( 'NONE', #134, 6.349999999999999645 ) ;
#166 = VECTOR ( 'NONE', #32, 1000.000000000000000 ) ;
#167 = DIRECTION ( 'NONE',  ( 0.000000000000000000, 0.000000000000000000, 1.000000000000000000 ) ) ;
#168 = APPLICATION_PROTOCOL_DEFINITION ( 'international standard', 'config_control_design', 1994, #172 ) ;
#169 =( NAMED_UNIT ( * ) PLANE_ANGLE_UNIT ( ) SI_UNIT ( $, .RADIAN. ) );
#170 = PERSON_AND_ORGANIZATION ( #38, #45 ) ;
#171 = ADVANCED_FACE ( 'NONE', ( #47 ), #105, .T. ) ;
#172 = APPLICATION_CONTEXT ( 'configuration controlled 3d designs of mechanical parts and assemblies' ) ;
#173 = DESIGN_CONTEXT ( 'detailed design', #172, 'design' ) ;
#174 = CC_DESIGN_PERSON_AND_ORGANIZATION_ASSIGNMENT ( #143, #120, ( #61 ) ) ;
#175 = EDGE_LOOP ( 'NONE', ( #72, #113 ) ) ;
ENDSEC;
END-ISO-10303-21;
