ISO-10303-21;
HEADER;
FILE_DESCRIPTION (( 'STEP AP203' ),
    '1' );
FILE_NAME ('Web Model 11877_11883.step',
    '2019-01-02T18:29:20',
    ( '' ),
    ( '' ),
    'SwSTEP 2.0',
    'SolidWorks 2016',
    '' );
FILE_SCHEMA (( 'CONFIG_CONTROL_DESIGN' ));
ENDSEC;

DATA;
#1 = EDGE_CURVE ( 'NONE', #107, #113, #91, .T. ) ;
#2 = ORIENTED_EDGE ( 'NONE', *, *, #155, .F. ) ;
#3 = APPLICATION_CONTEXT ( 'configuration controlled 3d designs of mechanical parts and assemblies' ) ;
#4 = COORDINATED_UNIVERSAL_TIME_OFFSET ( 5, 0, .BEHIND. ) ;
#5 = COORDINATED_UNIVERSAL_TIME_OFFSET ( 5, 0, .BEHIND. ) ;
#6 = ORIENTED_EDGE ( 'NONE', *, *, #61, .F. ) ;
#7 = AXIS2_PLACEMENT_3D ( 'NONE', #68, #110, #23 ) ;
#8 = EDGE_CURVE ( 'NONE', #205, #107, #29, .T. ) ;
#9 = ORIENTED_EDGE ( 'NONE', *, *, #8, .T. ) ;
#10 = AXIS2_PLACEMENT_3D ( 'NONE', #171, #40, #147 ) ;
#11 = EDGE_LOOP ( 'NONE', ( #238, #46 ) ) ;
#12 = CARTESIAN_POINT ( 'NONE',  ( 1.000000000000000000, 0.0000000000000000000, 0.0000000000000000000 ) ) ;
#13 = DIRECTION ( 'NONE',  ( 0.0000000000000000000, 0.0000000000000000000, 1.000000000000000000 ) ) ;
#14 = ADVANCED_FACE ( 'NONE', ( #136 ), #78, .T. ) ;
#15 = CARTESIAN_POINT ( 'NONE',  ( 0.9500000000000072800, 0.0000000000000000000, 12.50000000000000000 ) ) ;
#16 = DATE_AND_TIME ( #229, #50 ) ;
#17 = DIRECTION ( 'NONE',  ( 1.000000000000000000, 0.0000000000000000000, 0.0000000000000000000 ) ) ;
#18 = APPROVAL_STATUS ( 'not_yet_approved' ) ;
#19 = APPROVAL_STATUS ( 'not_yet_approved' ) ;
#20 =( GEOMETRIC_REPRESENTATION_CONTEXT ( 3 ) GLOBAL_UNCERTAINTY_ASSIGNED_CONTEXT ( ( #108 ) ) GLOBAL_UNIT_ASSIGNED_CONTEXT ( ( #236, #69, #240 ) ) REPRESENTATION_CONTEXT ( 'NONE', 'WORKASPACE' ) );
#21 = LINE ( 'NONE', #190, #215 ) ;
#22 = ORIENTED_EDGE ( 'NONE', *, *, #1, .F. ) ;
#23 = DIRECTION ( 'NONE',  ( 1.000000000000000000, 0.0000000000000000000, 0.0000000000000000000 ) ) ;
#24 = PRODUCT_DEFINITION_SHAPE ( 'NONE', 'NONE',  #48 ) ;
#25 = CC_DESIGN_PERSON_AND_ORGANIZATION_ASSIGNMENT ( #204, #254, ( #48 ) ) ;
#26 = AXIS2_PLACEMENT_3D ( 'NONE', #52, #226, #185 ) ;
#27 = AXIS2_PLACEMENT_3D ( 'NONE', #141, #99, #56 ) ;
#28 = SECURITY_CLASSIFICATION ( '', '', #257 ) ;
#29 = LINE ( 'NONE', #203, #274 ) ;
#30 = EDGE_CURVE ( 'NONE', #262, #113, #140, .T. ) ;
#31 = CIRCLE ( 'NONE', #217, 12.50000000000000000 ) ;
#32 = CARTESIAN_POINT ( 'NONE',  ( -0.9499999999999968500, 0.0000000000000000000, -12.50000000000000000 ) ) ;
#33 = CARTESIAN_POINT ( 'NONE',  ( 1.000000000000000000, 0.0000000000000000000, 0.0000000000000000000 ) ) ;
#34 = CIRCLE ( 'NONE', #92, 12.45000000000000300 ) ;
#35 = PERSON ( 'UNSPECIFIED', 'UNSPECIFIED', 'UNSPECIFIED', ('UNSPECIFIED'), ('UNSPECIFIED'), ('UNSPECIFIED') ) ;
#36 = CC_DESIGN_DATE_AND_TIME_ASSIGNMENT ( #196, #239, ( #48 ) ) ;
#37 = CARTESIAN_POINT ( 'NONE',  ( 1.000000000000000000, 1.527746881936323400E-015, -12.45000000000000300 ) ) ;
#38 = PERSON_AND_ORGANIZATION ( #35, #252 ) ;
#39 = CIRCLE ( 'NONE', #114, 12.50000000000000000 ) ;
#40 = DIRECTION ( 'NONE',  ( 1.000000000000000000, 0.0000000000000000000, 0.0000000000000000000 ) ) ;
#41 = DIRECTION ( 'NONE',  ( 0.0000000000000000000, 0.0000000000000000000, -1.000000000000000000 ) ) ;
#42 = PERSON_AND_ORGANIZATION ( #35, #252 ) ;
#43 = PERSON_AND_ORGANIZATION ( #35, #252 ) ;
#44 = ORIENTED_EDGE ( 'NONE', *, *, #1, .T. ) ;
#45 = APPROVAL_PERSON_ORGANIZATION ( #64, #125, #84 ) ;
#46 = ORIENTED_EDGE ( 'NONE', *, *, #85, .T. ) ;
#47 = APPROVAL_ROLE ( '' ) ;
#48 = PRODUCT_DEFINITION ( 'UNKNOWN', '', #72, #117 ) ;
#49 = ORIENTED_EDGE ( 'NONE', *, *, #30, .T. ) ;
#50 = LOCAL_TIME ( 13, 29, 20.00000000000000000, #5 ) ;
#51 = ORIENTED_EDGE ( 'NONE', *, *, #8, .F. ) ;
#52 = CARTESIAN_POINT ( 'NONE',  ( 0.9500000000000072800, 0.0000000000000000000, 0.0000000000000000000 ) ) ;
#53 = APPROVAL_PERSON_ORGANIZATION ( #86, #189, #180 ) ;
#54 = AXIS2_PLACEMENT_3D ( 'NONE', #62, #232, #149 ) ;
#55 = ORIENTED_EDGE ( 'NONE', *, *, #103, .F. ) ;
#56 = DIRECTION ( 'NONE',  ( 0.0000000000000000000, 0.0000000000000000000, -1.000000000000000000 ) ) ;
#57 = MANIFOLD_SOLID_BREP ( 'Chamfer1', #159 ) ;
#58 = PRODUCT_RELATED_PRODUCT_CATEGORY ( 'detail', '', ( #184 ) ) ;
#59 = CARTESIAN_POINT ( 'NONE',  ( 1.000000000000000000, 1.524685264938455200E-015, -12.45000000000000300 ) ) ;
#60 = FACE_OUTER_BOUND ( 'NONE', #11, .T. ) ;
#61 = EDGE_CURVE ( 'NONE', #87, #197, #70, .T. ) ;
#62 = CARTESIAN_POINT ( 'NONE',  ( -1.000000000000000000, 0.0000000000000000000, 0.0000000000000000000 ) ) ;
#63 = CARTESIAN_POINT ( 'NONE',  ( -0.9499999999999968500, 0.0000000000000000000, 0.0000000000000000000 ) ) ;
#64 = PERSON_AND_ORGANIZATION ( #35, #252 ) ;
#65 = PERSON_AND_ORGANIZATION_ROLE ( 'creator' ) ;
#66 = APPROVAL ( #218, 'UNSPECIFIED' ) ;
#67 = ADVANCED_FACE ( 'NONE', ( #219 ), #130, .T. ) ;
#68 = CARTESIAN_POINT ( 'NONE',  ( 0.0000000000000000000, 0.0000000000000000000, 0.0000000000000000000 ) ) ;
#69 =( NAMED_UNIT ( * ) PLANE_ANGLE_UNIT ( ) SI_UNIT ( $, .RADIAN. ) );
#70 = CIRCLE ( 'NONE', #26, 12.50000000000000000 ) ;
#71 = DIRECTION ( 'NONE',  ( -1.000000000000000000, 0.0000000000000000000, 0.0000000000000000000 ) ) ;
#72 = PRODUCT_DEFINITION_FORMATION_WITH_SPECIFIED_SOURCE ( 'ANY', '', #184, .NOT_KNOWN. ) ;
#73 = LINE ( 'NONE', #251, #242 ) ;
#74 = AXIS2_PLACEMENT_3D ( 'NONE', #63, #167, #41 ) ;
#75 = VECTOR ( 'NONE', #118, 1000.000000000000000 ) ;
#76 = AXIS2_PLACEMENT_3D ( 'NONE', #12, #124, #13 ) ;
#77 = EDGE_CURVE ( 'NONE', #205, #262, #116, .T. ) ;
#78 = CYLINDRICAL_SURFACE ( 'NONE', #132, 12.50000000000000000 ) ;
#79 = DIRECTION ( 'NONE',  ( 0.0000000000000000000, 0.0000000000000000000, -1.000000000000000000 ) ) ;
#80 = DIRECTION ( 'NONE',  ( -0.7071067811865107100, 8.659560562355384000E-017, -0.7071067811865843200 ) ) ;
#81 = CC_DESIGN_APPROVAL ( #125, ( #28 ) ) ;
#82 = CARTESIAN_POINT ( 'NONE',  ( 0.9500000000000072800, 0.0000000000000000000, 0.0000000000000000000 ) ) ;
#83 = ADVANCED_FACE ( 'NONE', ( #230 ), #273, .T. ) ;
#84 = APPROVAL_ROLE ( '' ) ;
#85 = EDGE_CURVE ( 'NONE', #183, #261, #34, .T. ) ;
#86 = PERSON_AND_ORGANIZATION ( #35, #252 ) ;
#87 = VERTEX_POINT ( 'NONE', #15 ) ;
#88 = CARTESIAN_POINT ( 'NONE',  ( -0.9499999999999968500, 0.0000000000000000000, 0.0000000000000000000 ) ) ;
#89 = AXIS2_PLACEMENT_3D ( 'NONE', #106, #145, #122 ) ;
#90 = VECTOR ( 'NONE', #80, 1000.000000000000000 ) ;
#91 = CIRCLE ( 'NONE', #27, 12.50000000000000000 ) ;
#92 = AXIS2_PLACEMENT_3D ( 'NONE', #207, #17, #146 ) ;
#93 = CC_DESIGN_DATE_AND_TIME_ASSIGNMENT ( #220, #133, ( #28 ) ) ;
#94 = COORDINATED_UNIVERSAL_TIME_OFFSET ( 5, 0, .BEHIND. ) ;
#95 = CYLINDRICAL_SURFACE ( 'NONE', #76, 12.50000000000000000 ) ;
#96 = DIRECTION ( 'NONE',  ( 0.0000000000000000000, 0.0000000000000000000, 1.000000000000000000 ) ) ;
#97 = COORDINATED_UNIVERSAL_TIME_OFFSET ( 5, 0, .BEHIND. ) ;
#98 = ORIENTED_EDGE ( 'NONE', *, *, #85, .F. ) ;
#99 = DIRECTION ( 'NONE',  ( 1.000000000000000000, -0.0000000000000000000, -0.0000000000000000000 ) ) ;
#100 = ADVANCED_FACE ( 'NONE', ( #104 ), #95, .T. ) ;
#101 = CARTESIAN_POINT ( 'NONE',  ( 0.9500000000000072800, 1.530808498934191500E-015, -12.50000000000000000 ) ) ;
#102 = ADVANCED_FACE ( 'NONE', ( #60 ), #250, .T. ) ;
#103 = EDGE_CURVE ( 'NONE', #262, #205, #148, .T. ) ;
#104 = FACE_OUTER_BOUND ( 'NONE', #152, .T. ) ;
#105 = DIRECTION ( 'NONE',  ( 0.0000000000000000000, 0.0000000000000000000, -1.000000000000000000 ) ) ;
#106 = CARTESIAN_POINT ( 'NONE',  ( -1.000000000000000000, 0.0000000000000000000, 0.0000000000000000000 ) ) ;
#107 = VERTEX_POINT ( 'NONE', #192 ) ;
#108 = UNCERTAINTY_MEASURE_WITH_UNIT (LENGTH_MEASURE( 1.000000000000000100E-005 ), #236, 'distance_accuracy_value', 'NONE');
#109 = DIRECTION ( 'NONE',  ( 0.0000000000000000000, 0.0000000000000000000, -1.000000000000000000 ) ) ;
#110 = DIRECTION ( 'NONE',  ( 0.0000000000000000000, 0.0000000000000000000, 1.000000000000000000 ) ) ;
#111 = EDGE_LOOP ( 'NONE', ( #223, #201 ) ) ;
#112 = DIRECTION ( 'NONE',  ( 0.0000000000000000000, 0.0000000000000000000, 1.000000000000000000 ) ) ;
#113 = VERTEX_POINT ( 'NONE', #127 ) ;
#114 = AXIS2_PLACEMENT_3D ( 'NONE', #82, #249, #105 ) ;
#115 = CALENDAR_DATE ( 2019, 2, 1 ) ;
#116 = CIRCLE ( 'NONE', #89, 12.44999999999999900 ) ;
#117 = DESIGN_CONTEXT ( 'detailed design', #134, 'design' ) ;
#118 = DIRECTION ( 'NONE',  ( 0.7071067811865597900, 0.0000000000000000000, -0.7071067811865352500 ) ) ;
#119 = APPROVAL_DATE_TIME ( #16, #189 ) ;
#120 = ORIENTED_EDGE ( 'NONE', *, *, #191, .T. ) ;
#121 = CC_DESIGN_SECURITY_CLASSIFICATION ( #28, ( #72 ) ) ;
#122 = DIRECTION ( 'NONE',  ( 0.0000000000000000000, 0.0000000000000000000, -1.000000000000000000 ) ) ;
#123 = ORIENTED_EDGE ( 'NONE', *, *, #268, .F. ) ;
#124 = DIRECTION ( 'NONE',  ( -1.000000000000000000, -0.0000000000000000000, -0.0000000000000000000 ) ) ;
#125 = APPROVAL ( #19, 'UNSPECIFIED' ) ;
#126 = DIRECTION ( 'NONE',  ( -0.7071067811865107100, 0.0000000000000000000, 0.7071067811865843200 ) ) ;
#127 = CARTESIAN_POINT ( 'NONE',  ( -0.9499999999999968500, 1.530808498934191500E-015, -12.50000000000000000 ) ) ;
#128 = DATE_AND_TIME ( #233, #259 ) ;
#129 = FACE_OUTER_BOUND ( 'NONE', #111, .T. ) ;
#130 = CONICAL_SURFACE ( 'NONE', #158, 12.45000000000000300, 0.7853981633975003500 ) ;
#131 = CARTESIAN_POINT ( 'NONE',  ( 1.000000000000000000, 1.530808498934191500E-015, -12.50000000000000000 ) ) ;
#132 = AXIS2_PLACEMENT_3D ( 'NONE', #33, #187, #96 ) ;
#133 = DATE_TIME_ROLE ( 'classification_date' ) ;
#134 = APPLICATION_CONTEXT ( 'configuration controlled 3d designs of mechanical parts and assemblies' ) ;
#135 = SHAPE_DEFINITION_REPRESENTATION ( #24, #241 ) ;
#136 = FACE_OUTER_BOUND ( 'NONE', #244, .T. ) ;
#137 = LOCAL_TIME ( 13, 29, 20.00000000000000000, #94 ) ;
#138 = PERSON_AND_ORGANIZATION ( #35, #252 ) ;
#139 = CC_DESIGN_APPROVAL ( #66, ( #48 ) ) ;
#140 = LINE ( 'NONE', #32, #75 ) ;
#141 = CARTESIAN_POINT ( 'NONE',  ( -0.9499999999999968500, 0.0000000000000000000, 0.0000000000000000000 ) ) ;
#142 = CALENDAR_DATE ( 2019, 2, 1 ) ;
#143 = ORIENTED_EDGE ( 'NONE', *, *, #77, .F. ) ;
#144 = DIRECTION ( 'NONE',  ( 0.7071067811865597900, 8.659560562354782500E-017, 0.7071067811865352500 ) ) ;
#145 = DIRECTION ( 'NONE',  ( -1.000000000000000000, -0.0000000000000000000, -0.0000000000000000000 ) ) ;
#146 = DIRECTION ( 'NONE',  ( 0.0000000000000000000, 0.0000000000000000000, -1.000000000000000000 ) ) ;
#147 = DIRECTION ( 'NONE',  ( 0.0000000000000000000, 0.0000000000000000000, -1.000000000000000000 ) ) ;
#148 = CIRCLE ( 'NONE', #54, 12.44999999999999900 ) ;
#149 = DIRECTION ( 'NONE',  ( 0.0000000000000000000, 0.0000000000000000000, -1.000000000000000000 ) ) ;
#150 = CARTESIAN_POINT ( 'NONE',  ( 1.000000000000000000, 0.0000000000000000000, 12.45000000000000300 ) ) ;
#151 = APPLICATION_PROTOCOL_DEFINITION ( 'international standard', 'config_control_design', 1994, #3 ) ;
#152 = EDGE_LOOP ( 'NONE', ( #256, #222, #178, #173 ) ) ;
#153 = PERSON_AND_ORGANIZATION_ROLE ( 'classification_officer' ) ;
#154 = DIRECTION ( 'NONE',  ( 1.000000000000000000, 0.0000000000000000000, 0.0000000000000000000 ) ) ;
#155 = EDGE_CURVE ( 'NONE', #197, #87, #39, .T. ) ;
#156 = APPLICATION_PROTOCOL_DEFINITION ( 'international standard', 'config_control_design', 1994, #134 ) ;
#157 = CC_DESIGN_PERSON_AND_ORGANIZATION_ASSIGNMENT ( #42, #153, ( #28 ) ) ;
#158 = AXIS2_PLACEMENT_3D ( 'NONE', #162, #224, #265 ) ;
#159 = CLOSED_SHELL ( 'NONE', ( #175, #67, #100, #14, #102, #210, #269, #83 ) ) ;
#160 = EDGE_LOOP ( 'NONE', ( #98, #120, #6, #216 ) ) ;
#161 = EDGE_CURVE ( 'NONE', #261, #87, #73, .T. ) ;
#162 = CARTESIAN_POINT ( 'NONE',  ( 1.000000000000000000, 0.0000000000000000000, 0.0000000000000000000 ) ) ;
#163 = APPROVAL_DATE_TIME ( #128, #125 ) ;
#164 = APPROVAL_DATE_TIME ( #247, #66 ) ;
#165 = ORIENTED_EDGE ( 'NONE', *, *, #245, .F. ) ;
#166 = CC_DESIGN_PERSON_AND_ORGANIZATION_ASSIGNMENT ( #138, #194, ( #184 ) ) ;
#167 = DIRECTION ( 'NONE',  ( 1.000000000000000000, -0.0000000000000000000, -0.0000000000000000000 ) ) ;
#168 = ORIENTED_EDGE ( 'NONE', *, *, #155, .T. ) ;
#169 = DIRECTION ( 'NONE',  ( 1.000000000000000000, -0.0000000000000000000, -0.0000000000000000000 ) ) ;
#170 = CC_DESIGN_PERSON_AND_ORGANIZATION_ASSIGNMENT ( #181, #214, ( #72 ) ) ;
#171 = CARTESIAN_POINT ( 'NONE',  ( 1.000000000000000000, 0.0000000000000000000, 0.0000000000000000000 ) ) ;
#172 = CALENDAR_DATE ( 2019, 2, 1 ) ;
#173 = ORIENTED_EDGE ( 'NONE', *, *, #202, .F. ) ;
#174 = AXIS2_PLACEMENT_3D ( 'NONE', #231, #270, #212 ) ;
#175 = ADVANCED_FACE ( 'NONE', ( #260 ), #255, .T. ) ;
#176 = CARTESIAN_POINT ( 'NONE',  ( 1.000000000000000000, 0.0000000000000000000, 0.0000000000000000000 ) ) ;
#177 = COORDINATED_UNIVERSAL_TIME_OFFSET ( 5, 0, .BEHIND. ) ;
#178 = ORIENTED_EDGE ( 'NONE', *, *, #268, .T. ) ;
#179 = MECHANICAL_CONTEXT ( 'NONE', #3, 'mechanical' ) ;
#180 = APPROVAL_ROLE ( '' ) ;
#181 = PERSON_AND_ORGANIZATION ( #35, #252 ) ;
#182 = EDGE_LOOP ( 'NONE', ( #51, #55, #49, #22 ) ) ;
#183 = VERTEX_POINT ( 'NONE', #37 ) ;
#184 = PRODUCT ( 'Web Model 11877_11883', 'Web Model 11877_11883', '', ( #179 ) ) ;
#185 = DIRECTION ( 'NONE',  ( 0.0000000000000000000, 0.0000000000000000000, -1.000000000000000000 ) ) ;
#186 = VECTOR ( 'NONE', #271, 1000.000000000000000 ) ;
#187 = DIRECTION ( 'NONE',  ( -1.000000000000000000, -0.0000000000000000000, -0.0000000000000000000 ) ) ;
#188 = EDGE_LOOP ( 'NONE', ( #227, #165, #264, #2 ) ) ;
#189 = APPROVAL ( #18, 'UNSPECIFIED' ) ;
#190 = CARTESIAN_POINT ( 'NONE',  ( 1.000000000000000000, 0.0000000000000000000, 12.50000000000000000 ) ) ;
#191 = EDGE_CURVE ( 'NONE', #183, #197, #234, .T. ) ;
#192 = CARTESIAN_POINT ( 'NONE',  ( -0.9499999999999968500, 0.0000000000000000000, 12.50000000000000000 ) ) ;
#193 = CARTESIAN_POINT ( 'NONE',  ( -1.000000000000000000, 1.527746881936323000E-015, 12.44999999999999900 ) ) ;
#194 = PERSON_AND_ORGANIZATION_ROLE ( 'design_owner' ) ;
#195 = CC_DESIGN_PERSON_AND_ORGANIZATION_ASSIGNMENT ( #38, #65, ( #72 ) ) ;
#196 = DATE_AND_TIME ( #142, #200 ) ;
#197 = VERTEX_POINT ( 'NONE', #101 ) ;
#198 = FACE_OUTER_BOUND ( 'NONE', #188, .T. ) ;
#199 = AXIS2_PLACEMENT_3D ( 'NONE', #176, #154, #109 ) ;
#200 = LOCAL_TIME ( 13, 29, 20.00000000000000000, #97 ) ;
#201 = ORIENTED_EDGE ( 'NONE', *, *, #77, .T. ) ;
#202 = EDGE_CURVE ( 'NONE', #87, #107, #21, .T. ) ;
#203 = CARTESIAN_POINT ( 'NONE',  ( -0.9499999999999968500, 1.530808498934191500E-015, 12.50000000000000000 ) ) ;
#204 = PERSON_AND_ORGANIZATION ( #35, #252 ) ;
#205 = VERTEX_POINT ( 'NONE', #193 ) ;
#206 = CARTESIAN_POINT ( 'NONE',  ( 1.000000000000000000, 0.0000000000000000000, 0.0000000000000000000 ) ) ;
#207 = CARTESIAN_POINT ( 'NONE',  ( 1.000000000000000000, 0.0000000000000000000, 0.0000000000000000000 ) ) ;
#208 = PLANE ( 'NONE',  #174 ) ;
#209 = ORIENTED_EDGE ( 'NONE', *, *, #30, .F. ) ;
#210 = ADVANCED_FACE ( 'NONE', ( #129 ), #208, .F. ) ;
#211 = DIRECTION ( 'NONE',  ( -1.000000000000000000, -0.0000000000000000000, -0.0000000000000000000 ) ) ;
#212 = DIRECTION ( 'NONE',  ( 0.0000000000000000000, 0.0000000000000000000, -1.000000000000000000 ) ) ;
#213 = CC_DESIGN_APPROVAL ( #189, ( #72 ) ) ;
#214 = PERSON_AND_ORGANIZATION_ROLE ( 'design_supplier' ) ;
#215 = VECTOR ( 'NONE', #211, 1000.000000000000000 ) ;
#216 = ORIENTED_EDGE ( 'NONE', *, *, #161, .F. ) ;
#217 = AXIS2_PLACEMENT_3D ( 'NONE', #88, #275, #258 ) ;
#218 = APPROVAL_STATUS ( 'not_yet_approved' ) ;
#219 = FACE_OUTER_BOUND ( 'NONE', #160, .T. ) ;
#220 = DATE_AND_TIME ( #115, #137 ) ;
#221 = LOCAL_TIME ( 13, 29, 20.00000000000000000, #4 ) ;
#222 = ORIENTED_EDGE ( 'NONE', *, *, #243, .T. ) ;
#223 = ORIENTED_EDGE ( 'NONE', *, *, #103, .T. ) ;
#224 = DIRECTION ( 'NONE',  ( -1.000000000000000000, 0.0000000000000000000, 0.0000000000000000000 ) ) ;
#225 = CONICAL_SURFACE ( 'NONE', #228, 12.45000000000000300, 0.7853981633975003500 ) ;
#226 = DIRECTION ( 'NONE',  ( -1.000000000000000000, 0.0000000000000000000, 0.0000000000000000000 ) ) ;
#227 = ORIENTED_EDGE ( 'NONE', *, *, #191, .F. ) ;
#228 = AXIS2_PLACEMENT_3D ( 'NONE', #206, #71, #112 ) ;
#229 = CALENDAR_DATE ( 2019, 2, 1 ) ;
#230 = FACE_OUTER_BOUND ( 'NONE', #182, .T. ) ;
#231 = CARTESIAN_POINT ( 'NONE',  ( -1.000000000000000000, 0.0000000000000000000, 0.0000000000000000000 ) ) ;
#232 = DIRECTION ( 'NONE',  ( -1.000000000000000000, -0.0000000000000000000, -0.0000000000000000000 ) ) ;
#233 = CALENDAR_DATE ( 2019, 2, 1 ) ;
#234 = LINE ( 'NONE', #59, #90 ) ;
#235 = EDGE_LOOP ( 'NONE', ( #143, #9, #123, #209 ) ) ;
#236 =( LENGTH_UNIT ( ) NAMED_UNIT ( * ) SI_UNIT ( .MILLI., .METRE. ) );
#237 = CIRCLE ( 'NONE', #199, 12.45000000000000300 ) ;
#238 = ORIENTED_EDGE ( 'NONE', *, *, #245, .T. ) ;
#239 = DATE_TIME_ROLE ( 'creation_date' ) ;
#240 =( NAMED_UNIT ( * ) SI_UNIT ( $, .STERADIAN. ) SOLID_ANGLE_UNIT ( ) );
#241 = ADVANCED_BREP_SHAPE_REPRESENTATION ( 'Web Model 11877_11883', ( #57, #7 ), #20 ) ;
#242 = VECTOR ( 'NONE', #126, 1000.000000000000000 ) ;
#243 = EDGE_CURVE ( 'NONE', #197, #113, #263, .T. ) ;
#244 = EDGE_LOOP ( 'NONE', ( #248, #168, #267, #44 ) ) ;
#245 = EDGE_CURVE ( 'NONE', #261, #183, #237, .T. ) ;
#246 = APPROVAL_PERSON_ORGANIZATION ( #43, #66, #47 ) ;
#247 = DATE_AND_TIME ( #172, #221 ) ;
#248 = ORIENTED_EDGE ( 'NONE', *, *, #243, .F. ) ;
#249 = DIRECTION ( 'NONE',  ( -1.000000000000000000, 0.0000000000000000000, 0.0000000000000000000 ) ) ;
#250 = PLANE ( 'NONE',  #10 ) ;
#251 = CARTESIAN_POINT ( 'NONE',  ( 1.000000000000000000, 0.0000000000000000000, 12.45000000000000300 ) ) ;
#252 = ORGANIZATION ( 'UNSPECIFIED', 'UNSPECIFIED', '' ) ;
#253 = CARTESIAN_POINT ( 'NONE',  ( -1.000000000000000000, 0.0000000000000000000, -12.44999999999999900 ) ) ;
#254 = PERSON_AND_ORGANIZATION_ROLE ( 'creator' ) ;
#255 = CONICAL_SURFACE ( 'NONE', #74, 12.50000000000000000, 0.7853981633974309600 ) ;
#256 = ORIENTED_EDGE ( 'NONE', *, *, #61, .T. ) ;
#257 = SECURITY_CLASSIFICATION_LEVEL ( 'unclassified' ) ;
#258 = DIRECTION ( 'NONE',  ( 0.0000000000000000000, 0.0000000000000000000, -1.000000000000000000 ) ) ;
#259 = LOCAL_TIME ( 13, 29, 20.00000000000000000, #177 ) ;
#260 = FACE_OUTER_BOUND ( 'NONE', #235, .T. ) ;
#261 = VERTEX_POINT ( 'NONE', #150 ) ;
#262 = VERTEX_POINT ( 'NONE', #253 ) ;
#263 = LINE ( 'NONE', #131, #186 ) ;
#264 = ORIENTED_EDGE ( 'NONE', *, *, #161, .T. ) ;
#265 = DIRECTION ( 'NONE',  ( 0.0000000000000000000, 0.0000000000000000000, 1.000000000000000000 ) ) ;
#266 = CARTESIAN_POINT ( 'NONE',  ( -0.9499999999999968500, 0.0000000000000000000, 0.0000000000000000000 ) ) ;
#267 = ORIENTED_EDGE ( 'NONE', *, *, #202, .T. ) ;
#268 = EDGE_CURVE ( 'NONE', #113, #107, #31, .T. ) ;
#269 = ADVANCED_FACE ( 'NONE', ( #198 ), #225, .T. ) ;
#270 = DIRECTION ( 'NONE',  ( 1.000000000000000000, 0.0000000000000000000, 0.0000000000000000000 ) ) ;
#271 = DIRECTION ( 'NONE',  ( -1.000000000000000000, -0.0000000000000000000, -0.0000000000000000000 ) ) ;
#272 = AXIS2_PLACEMENT_3D ( 'NONE', #266, #169, #79 ) ;
#273 = CONICAL_SURFACE ( 'NONE', #272, 12.50000000000000000, 0.7853981633974309600 ) ;
#274 = VECTOR ( 'NONE', #144, 1000.000000000000000 ) ;
#275 = DIRECTION ( 'NONE',  ( 1.000000000000000000, -0.0000000000000000000, -0.0000000000000000000 ) ) ;
ENDSEC;
END-ISO-10303-21;
