ISO-10303-21;
HEADER;
FILE_DESCRIPTION (( 'STEP AP203' ),
    '1' );
FILE_NAME ('TTN099113-E0W.STEP',
    '2019-12-09T20:54:36',
    ( '' ),
    ( '' ),
    'SwSTEP 2.0',
    'SolidWorks 2018',
    '' );
FILE_SCHEMA (( 'CONFIG_CONTROL_DESIGN' ));
ENDSEC;

DATA;
#1 = LINE ( 'NONE', #73, #85 ) ;
#2 = VERTEX_POINT ( 'NONE', #252 ) ;
#3 = ORIENTED_EDGE ( 'NONE', *, *, #97, .F. ) ;
#4 = AXIS2_PLACEMENT_3D ( 'NONE', #326, #76, #111 ) ;
#5 = LINE ( 'NONE', #72, #269 ) ;
#6 = VERTEX_POINT ( 'NONE', #61 ) ;
#7 =( GEOMETRIC_REPRESENTATION_CONTEXT ( 3 ) GLOBAL_UNCERTAINTY_ASSIGNED_CONTEXT ( ( #66 ) ) GLOBAL_UNIT_ASSIGNED_CONTEXT ( ( #264, #321, #78 ) ) REPRESENTATION_CONTEXT ( 'NONE', 'WORKASPACE' ) );
#8 = DIRECTION ( 'NONE',  ( -1.000000000000000000, 0.0000000000000000000, 0.0000000000000000000 ) ) ;
#9 = CARTESIAN_POINT ( 'NONE',  ( 0.0000000000000000000, 1.285758296706851804E-13, -1050.956000000000358 ) ) ;
#10 = APPROVAL ( #322, 'UNSPECIFIED' ) ;
#11 = LINE ( 'NONE', #48, #290 ) ;
#12 = ORIENTED_EDGE ( 'NONE', *, *, #338, .F. ) ;
#13 = ORIENTED_EDGE ( 'NONE', *, *, #71, .T. ) ;
#14 = DIRECTION ( 'NONE',  ( -1.000000000000000000, 0.0000000000000000000, 0.0000000000000000000 ) ) ;
#15 = PLANE ( 'NONE',  #94 ) ;
#16 = CARTESIAN_POINT ( 'NONE',  ( 0.0000000000000000000, 1.285758296706851804E-13, -1050.956000000000358 ) ) ;
#17 = LOCAL_TIME ( 15, 54, 36.00000000000000000, #162 ) ;
#18 = ORIENTED_EDGE ( 'NONE', *, *, #258, .T. ) ;
#19 = DIRECTION ( 'NONE',  ( -0.0000000000000000000, 3.061515884555943146E-16, -1.000000000000000000 ) ) ;
#20 = APPROVAL ( #360, 'UNSPECIFIED' ) ;
#21 = DIRECTION ( 'NONE',  ( -0.7071067811865484609, 8.659560562354943952E-17, 0.7071067811865465735 ) ) ;
#22 = LOCAL_TIME ( 15, 54, 36.00000000000000000, #116 ) ;
#23 = CONICAL_SURFACE ( 'NONE', #63, 12.70000000000000284, 0.7853981633974496113 ) ;
#24 = DATE_TIME_ROLE ( 'classification_date' ) ;
#25 = SHAPE_DEFINITION_REPRESENTATION ( #157, #231 ) ;
#26 = ORIENTED_EDGE ( 'NONE', *, *, #115, .F. ) ;
#27 = VERTEX_POINT ( 'NONE', #34 ) ;
#28 = MANIFOLD_SOLID_BREP ( 'TTN099115-1-solid1', #81 ) ;
#29 = AXIS2_PLACEMENT_3D ( 'NONE', #315, #155, #176 ) ;
#30 = EDGE_CURVE ( 'NONE', #334, #266, #283, .T. ) ;
#31 = CIRCLE ( 'NONE', #251, 12.70000000000000284 ) ;
#32 = ORIENTED_EDGE ( 'NONE', *, *, #286, .F. ) ;
#33 = CC_DESIGN_APPROVAL ( #10, ( #217 ) ) ;
#34 = CARTESIAN_POINT ( 'NONE',  ( -12.70000000000000284, 1.555301434917138827E-15, -0.8400000000000001910 ) ) ;
#35 = VERTEX_POINT ( 'NONE', #89 ) ;
#36 = ORIENTED_EDGE ( 'NONE', *, *, #258, .F. ) ;
#37 = EDGE_CURVE ( 'NONE', #223, #234, #187, .T. ) ;
#38 = APPROVAL_PERSON_ORGANIZATION ( #304, #20, #138 ) ;
#39 = DIRECTION ( 'NONE',  ( -1.000000000000000000, 0.0000000000000000000, 0.0000000000000000000 ) ) ;
#40 = AXIS2_PLACEMENT_3D ( 'NONE', #172, #280, #311 ) ;
#41 = DIRECTION ( 'NONE',  ( 1.000000000000000000, 1.224646799147353207E-16, 3.749275628560213616E-32 ) ) ;
#42 = CARTESIAN_POINT ( 'NONE',  ( 0.0000000000000000000, 3.845263951002271612E-16, -1.040000000000002034 ) ) ;
#43 = DATE_AND_TIME ( #47, #132 ) ;
#44 = CARTESIAN_POINT ( 'NONE',  ( 0.0000000000000000000, 0.0000000000000000000, 0.9657337882129648499 ) ) ;
#45 = DIRECTION ( 'NONE',  ( -0.0000000000000000000, -0.0000000000000000000, -1.000000000000000000 ) ) ;
#46 = AXIS2_PLACEMENT_3D ( 'NONE', #336, #272, #60 ) ;
#47 = CALENDAR_DATE ( 2019, 9, 12 ) ;
#48 = CARTESIAN_POINT ( 'NONE',  ( -12.70000000000000284, 1.555301434917138827E-15, -0.8400000000000001910 ) ) ;
#49 = EDGE_LOOP ( 'NONE', ( #52, #203, #291, #26, #151, #297 ) ) ;
#50 = CONICAL_SURFACE ( 'NONE', #261, 12.50000000000000178, 0.7853981633974516097 ) ;
#51 = AXIS2_PLACEMENT_3D ( 'NONE', #320, #201, #288 ) ;
#52 = ORIENTED_EDGE ( 'NONE', *, *, #277, .T. ) ;
#53 = CIRCLE ( 'NONE', #149, 12.70000000000000284 ) ;
#54 = CIRCLE ( 'NONE', #318, 12.70000000000000284 ) ;
#55 = LOCAL_TIME ( 15, 54, 36.00000000000000000, #79 ) ;
#56 = ORIENTED_EDGE ( 'NONE', *, *, #37, .F. ) ;
#57 = VERTEX_POINT ( 'NONE', #218 ) ;
#58 = DIRECTION ( 'NONE',  ( -0.0000000000000000000, -0.0000000000000000000, -1.000000000000000000 ) ) ;
#59 = AXIS2_PLACEMENT_3D ( 'NONE', #16, #173, #127 ) ;
#60 = DIRECTION ( 'NONE',  ( 0.0000000000000000000, 1.000000000000000000, 2.110698186352716487E-16 ) ) ;
#61 = CARTESIAN_POINT ( 'NONE',  ( 0.0000000000000000000, 12.49999999999722178, 0.9657337882129641837 ) ) ;
#62 = CIRCLE ( 'NONE', #51, 1051.996000000000322 ) ;
#63 = AXIS2_PLACEMENT_3D ( 'NONE', #169, #255, #174 ) ;
#64 = DIRECTION ( 'NONE',  ( -0.0000000000000000000, -0.0000000000000000000, -1.000000000000000000 ) ) ;
#65 = PERSON_AND_ORGANIZATION ( #271, #92 ) ;
#66 = UNCERTAINTY_MEASURE_WITH_UNIT (LENGTH_MEASURE( 1.000000000000000082E-05 ), #264, 'distance_accuracy_value', 'NONE');
#67 = PRODUCT_RELATED_PRODUCT_CATEGORY ( 'detail', '', ( #331 ) ) ;
#68 = EDGE_LOOP ( 'NONE', ( #317, #210, #344, #126, #56, #113 ) ) ;
#69 = AXIS2_PLACEMENT_3D ( 'NONE', #175, #232, #284 ) ;
#70 = DIRECTION ( 'NONE',  ( -0.0000000000000000000, -0.0000000000000000000, -1.000000000000000000 ) ) ;
#71 = EDGE_CURVE ( 'NONE', #254, #27, #31, .T. ) ;
#72 = CARTESIAN_POINT ( 'NONE',  ( 12.70000000000000284, 0.0000000000000000000, -0.8400000000000001910 ) ) ;
#73 = CARTESIAN_POINT ( 'NONE',  ( 0.0000000000000000000, 12.70000000000000284, -1.039999999999996261 ) ) ;
#74 = ORIENTED_EDGE ( 'NONE', *, *, #301, .T. ) ;
#75 = ORIENTED_EDGE ( 'NONE', *, *, #194, .T. ) ;
#76 = DIRECTION ( 'NONE',  ( 0.0000000000000000000, 0.0000000000000000000, 1.000000000000000000 ) ) ;
#77 = EDGE_CURVE ( 'NONE', #27, #223, #54, .T. ) ;
#78 =( NAMED_UNIT ( * ) SI_UNIT ( $, .STERADIAN. ) SOLID_ANGLE_UNIT ( ) );
#79 = COORDINATED_UNIVERSAL_TIME_OFFSET ( 5, 0, .BEHIND. ) ;
#80 = CIRCLE ( 'NONE', #276, 12.50000000000000178 ) ;
#81 = CLOSED_SHELL ( 'NONE', ( #83, #215, #87, #335, #120, #119, #195, #189, #188 ) ) ;
#82 = AXIS2_PLACEMENT_3D ( 'NONE', #9, #41, #226 ) ;
#83 = ADVANCED_FACE ( 'NONE', ( #341 ), #233, .T. ) ;
#84 = LOCAL_TIME ( 15, 54, 36.00000000000000000, #158 ) ;
#85 = VECTOR ( 'NONE', #256, 1000.000000000000000 ) ;
#86 = ORIENTED_EDGE ( 'NONE', *, *, #245, .T. ) ;
#87 = ADVANCED_FACE ( 'NONE', ( #137 ), #159, .T. ) ;
#88 = AXIS2_PLACEMENT_3D ( 'NONE', #103, #181, #257 ) ;
#89 = CARTESIAN_POINT ( 'NONE',  ( 1.530808498933811882E-15, -12.49999999999709388, 0.9657337882129641837 ) ) ;
#90 = EDGE_CURVE ( 'NONE', #196, #57, #53, .T. ) ;
#91 = DIRECTION ( 'NONE',  ( 0.7071067811865499042, 8.659560562354961208E-17, -0.7071067811865452413 ) ) ;
#92 = ORGANIZATION ( 'UNSPECIFIED', 'UNSPECIFIED', '' ) ;
#93 = ORIENTED_EDGE ( 'NONE', *, *, #357, .F. ) ;
#94 = AXIS2_PLACEMENT_3D ( 'NONE', #42, #285, #228 ) ;
#95 = DIRECTION ( 'NONE',  ( -1.000000000000000000, 0.0000000000000000000, 0.0000000000000000000 ) ) ;
#96 = CARTESIAN_POINT ( 'NONE',  ( 0.0000000000000000000, 0.0000000000000000000, 0.7657337882129655604 ) ) ;
#97 = EDGE_CURVE ( 'NONE', #197, #196, #212, .T. ) ;
#98 = DIRECTION ( 'NONE',  ( -0.0000000000000000000, -0.0000000000000000000, -1.000000000000000000 ) ) ;
#99 = VERTEX_POINT ( 'NONE', #305 ) ;
#100 = ORIENTED_EDGE ( 'NONE', *, *, #306, .T. ) ;
#101 = CC_DESIGN_DATE_AND_TIME_ASSIGNMENT ( #179, #294, ( #361 ) ) ;
#102 = DIRECTION ( 'NONE',  ( -0.7071067811865499042, 0.0000000000000000000, -0.7071067811865452413 ) ) ;
#103 = CARTESIAN_POINT ( 'NONE',  ( 0.0000000000000000000, 0.0000000000000000000, 0.9657337882129648499 ) ) ;
#104 = CARTESIAN_POINT ( 'NONE',  ( 12.50000000000000178, 0.0000000000000000000, -1.040000000000000036 ) ) ;
#105 = FACE_OUTER_BOUND ( 'NONE', #300, .T. ) ;
#106 = ORIENTED_EDGE ( 'NONE', *, *, #90, .F. ) ;
#107 = CARTESIAN_POINT ( 'NONE',  ( 0.0000000000000000000, 0.0000000000000000000, 0.9657337882129648499 ) ) ;
#108 = PERSON_AND_ORGANIZATION_ROLE ( 'design_owner' ) ;
#109 = DESIGN_CONTEXT ( 'detailed design', #267, 'design' ) ;
#110 = DIRECTION ( 'NONE',  ( 0.7071067811865484609, 0.0000000000000000000, 0.7071067811865465735 ) ) ;
#111 = DIRECTION ( 'NONE',  ( 1.000000000000000000, 0.0000000000000000000, 0.0000000000000000000 ) ) ;
#112 = EDGE_LOOP ( 'NONE', ( #214, #100, #312, #208, #222, #184 ) ) ;
#113 = ORIENTED_EDGE ( 'NONE', *, *, #211, .F. ) ;
#114 = APPROVAL_STATUS ( 'not_yet_approved' ) ;
#115 = EDGE_CURVE ( 'NONE', #266, #196, #265, .T. ) ;
#116 = COORDINATED_UNIVERSAL_TIME_OFFSET ( 5, 0, .BEHIND. ) ;
#117 = EDGE_LOOP ( 'NONE', ( #244, #354 ) ) ;
#118 = CC_DESIGN_SECURITY_CLASSIFICATION ( #217, ( #302 ) ) ;
#119 = ADVANCED_FACE ( 'NONE', ( #105 ), #23, .T. ) ;
#120 = ADVANCED_FACE ( 'NONE', ( #220 ), #353, .T. ) ;
#121 = DIRECTION ( 'NONE',  ( -1.000000000000000000, 0.0000000000000000000, 0.0000000000000000000 ) ) ;
#122 = EDGE_LOOP ( 'NONE', ( #227, #293, #140, #160 ) ) ;
#123 = CARTESIAN_POINT ( 'NONE',  ( 0.0000000000000000000, 0.0000000000000000000, -0.8400000000000001910 ) ) ;
#124 = CC_DESIGN_APPROVAL ( #20, ( #302 ) ) ;
#125 = CIRCLE ( 'NONE', #82, 1051.996000000000322 ) ;
#126 = ORIENTED_EDGE ( 'NONE', *, *, #148, .F. ) ;
#127 = DIRECTION ( 'NONE',  ( 0.0000000000000000000, 1.000000000000000000, 2.110698186352716487E-16 ) ) ;
#128 = FACE_OUTER_BOUND ( 'NONE', #330, .T. ) ;
#129 = DATE_AND_TIME ( #342, #55 ) ;
#130 = DIRECTION ( 'NONE',  ( -0.0000000000000000000, -0.0000000000000000000, -1.000000000000000000 ) ) ;
#131 = DIRECTION ( 'NONE',  ( -1.000000000000000000, 0.0000000000000000000, 0.0000000000000000000 ) ) ;
#132 = LOCAL_TIME ( 15, 54, 36.00000000000000000, #192 ) ;
#133 = CIRCLE ( 'NONE', #229, 12.50000000000000178 ) ;
#134 = CARTESIAN_POINT ( 'NONE',  ( 0.0000000000000000000, 3.845263951002266188E-16, -1.040000000000000036 ) ) ;
#135 = AXIS2_PLACEMENT_3D ( 'NONE', #308, #130, #340 ) ;
#136 = PERSON_AND_ORGANIZATION_ROLE ( 'design_supplier' ) ;
#137 = FACE_OUTER_BOUND ( 'NONE', #240, .T. ) ;
#138 = APPROVAL_ROLE ( '' ) ;
#139 = CARTESIAN_POINT ( 'NONE',  ( 0.0000000000000000000, 0.0000000000000000000, -1.040000000000000036 ) ) ;
#140 = ORIENTED_EDGE ( 'NONE', *, *, #245, .F. ) ;
#141 = AXIS2_PLACEMENT_3D ( 'NONE', #123, #145, #168 ) ;
#142 = CARTESIAN_POINT ( 'NONE',  ( 0.0000000000000000000, 0.0000000000000000000, -0.8400000000000001910 ) ) ;
#143 = CARTESIAN_POINT ( 'NONE',  ( 0.0000000000000000000, 0.0000000000000000000, -0.8400000000000001910 ) ) ;
#144 = AXIS2_PLACEMENT_3D ( 'NONE', #143, #58, #8 ) ;
#145 = DIRECTION ( 'NONE',  ( 0.0000000000000000000, 0.0000000000000000000, 1.000000000000000000 ) ) ;
#146 = PERSON_AND_ORGANIZATION ( #271, #92 ) ;
#147 = CONICAL_SURFACE ( 'NONE', #235, 12.50000000000000178, 0.7853981633974516097 ) ;
#148 = EDGE_CURVE ( 'NONE', #234, #254, #190, .T. ) ;
#149 = AXIS2_PLACEMENT_3D ( 'NONE', #96, #98, #95 ) ;
#150 = CIRCLE ( 'NONE', #69, 12.50000000000000178 ) ;
#151 = ORIENTED_EDGE ( 'NONE', *, *, #30, .F. ) ;
#152 = DIRECTION ( 'NONE',  ( -1.000000000000000000, 0.0000000000000000000, 0.0000000000000000000 ) ) ;
#153 = DATE_AND_TIME ( #332, #17 ) ;
#154 = FACE_OUTER_BOUND ( 'NONE', #68, .T. ) ;
#155 = DIRECTION ( 'NONE',  ( -0.0000000000000000000, -0.0000000000000000000, -1.000000000000000000 ) ) ;
#156 = CARTESIAN_POINT ( 'NONE',  ( 0.0000000000000000000, -1.290782400724553521E-13, 1.039999999999929869 ) ) ;
#157 = PRODUCT_DEFINITION_SHAPE ( 'NONE', 'NONE',  #361 ) ;
#158 = COORDINATED_UNIVERSAL_TIME_OFFSET ( 5, 0, .BEHIND. ) ;
#159 = CONICAL_SURFACE ( 'NONE', #141, 12.70000000000000284, 0.7853981633974496113 ) ;
#160 = ORIENTED_EDGE ( 'NONE', *, *, #241, .F. ) ;
#161 = APPLICATION_PROTOCOL_DEFINITION ( 'international standard', 'config_control_design', 1994, #267 ) ;
#162 = COORDINATED_UNIVERSAL_TIME_OFFSET ( 5, 0, .BEHIND. ) ;
#163 = MECHANICAL_CONTEXT ( 'NONE', #239, 'mechanical' ) ;
#164 = AXIS2_PLACEMENT_3D ( 'NONE', #134, #19, #230 ) ;
#165 = FACE_OUTER_BOUND ( 'NONE', #49, .T. ) ;
#166 = ORIENTED_EDGE ( 'NONE', *, *, #277, .F. ) ;
#167 = DIRECTION ( 'NONE',  ( -0.0000000000000000000, -0.0000000000000000000, -1.000000000000000000 ) ) ;
#168 = DIRECTION ( 'NONE',  ( 1.000000000000000000, 0.0000000000000000000, 0.0000000000000000000 ) ) ;
#169 = CARTESIAN_POINT ( 'NONE',  ( 0.0000000000000000000, 0.0000000000000000000, -0.8400000000000001910 ) ) ;
#170 = CALENDAR_DATE ( 2019, 9, 12 ) ;
#171 = ORIENTED_EDGE ( 'NONE', *, *, #37, .T. ) ;
#172 = CARTESIAN_POINT ( 'NONE',  ( 0.0000000000000000000, 3.845263951002266188E-16, -1.040000000000000036 ) ) ;
#173 = DIRECTION ( 'NONE',  ( 1.000000000000000000, 0.0000000000000000000, -0.0000000000000000000 ) ) ;
#174 = DIRECTION ( 'NONE',  ( 1.000000000000000000, 0.0000000000000000000, 0.0000000000000000000 ) ) ;
#175 = CARTESIAN_POINT ( 'NONE',  ( 0.0000000000000000000, 0.0000000000000000000, 0.9657337882129648499 ) ) ;
#176 = DIRECTION ( 'NONE',  ( -1.000000000000000000, 0.0000000000000000000, 0.0000000000000000000 ) ) ;
#177 = DIRECTION ( 'NONE',  ( -1.000000000000000000, 0.0000000000000000000, 0.0000000000000000000 ) ) ;
#178 = EDGE_CURVE ( 'NONE', #243, #35, #125, .T. ) ;
#179 = DATE_AND_TIME ( #268, #84 ) ;
#180 = LINE ( 'NONE', #313, #347 ) ;
#181 = DIRECTION ( 'NONE',  ( -0.0000000000000000000, -0.0000000000000000000, -1.000000000000000000 ) ) ;
#182 = APPROVAL_ROLE ( '' ) ;
#183 = DIRECTION ( 'NONE',  ( -0.0000000000000000000, 3.061515884555943146E-16, -1.000000000000000000 ) ) ;
#184 = ORIENTED_EDGE ( 'NONE', *, *, #71, .F. ) ;
#185 = DIRECTION ( 'NONE',  ( -1.000000000000000000, 0.0000000000000000000, 0.0000000000000000000 ) ) ;
#186 = EDGE_CURVE ( 'NONE', #99, #238, #193, .T. ) ;
#187 = CIRCLE ( 'NONE', #144, 12.70000000000000284 ) ;
#188 = ADVANCED_FACE ( 'NONE', ( #128 ), #329, .T. ) ;
#189 = ADVANCED_FACE ( 'NONE', ( #202 ), #147, .T. ) ;
#190 = CIRCLE ( 'NONE', #135, 12.70000000000000284 ) ;
#191 = DIRECTION ( 'NONE',  ( -1.000000000000000000, 0.0000000000000000000, 0.0000000000000000000 ) ) ;
#192 = COORDINATED_UNIVERSAL_TIME_OFFSET ( 5, 0, .BEHIND. ) ;
#193 = CIRCLE ( 'NONE', #213, 12.50000000000000178 ) ;
#194 = EDGE_CURVE ( 'NONE', #243, #6, #62, .T. ) ;
#195 = ADVANCED_FACE ( 'NONE', ( #307 ), #15, .T. ) ;
#196 = VERTEX_POINT ( 'NONE', #224 ) ;
#197 = VERTEX_POINT ( 'NONE', #259 ) ;
#198 = CARTESIAN_POINT ( 'NONE',  ( 0.0000000000000000000, 0.0000000000000000000, 0.7657337882129655604 ) ) ;
#199 = CARTESIAN_POINT ( 'NONE',  ( 0.0000000000000000000, 0.0000000000000000000, 0.9657337882129648499 ) ) ;
#200 = PERSON_AND_ORGANIZATION ( #271, #92 ) ;
#201 = DIRECTION ( 'NONE',  ( -1.000000000000000000, 0.0000000000000000000, 0.0000000000000000000 ) ) ;
#202 = FACE_OUTER_BOUND ( 'NONE', #324, .T. ) ;
#203 = ORIENTED_EDGE ( 'NONE', *, *, #241, .T. ) ;
#204 = CARTESIAN_POINT ( 'NONE',  ( 0.0000000000000000000, 12.70000000000000284, 0.7657337882129655604 ) ) ;
#205 = CARTESIAN_POINT ( 'NONE',  ( -12.70000000000000284, 0.0000000000000000000, 0.7657337882129655604 ) ) ;
#206 = LINE ( 'NONE', #262, #248 ) ;
#207 = ORIENTED_EDGE ( 'NONE', *, *, #186, .F. ) ;
#208 = ORIENTED_EDGE ( 'NONE', *, *, #211, .T. ) ;
#209 = CC_DESIGN_PERSON_AND_ORGANIZATION_ASSIGNMENT ( #242, #292, ( #302 ) ) ;
#210 = ORIENTED_EDGE ( 'NONE', *, *, #90, .T. ) ;
#211 = EDGE_CURVE ( 'NONE', #266, #223, #1, .T. ) ;
#212 = LINE ( 'NONE', #310, #253 ) ;
#213 = AXIS2_PLACEMENT_3D ( 'NONE', #225, #343, #152 ) ;
#214 = ORIENTED_EDGE ( 'NONE', *, *, #358, .F. ) ;
#215 = ADVANCED_FACE ( 'NONE', ( #165 ), #50, .T. ) ;
#216 = CIRCLE ( 'NONE', #299, 12.50000000000000178 ) ;
#217 = SECURITY_CLASSIFICATION ( '', '', #296 ) ;
#218 = CARTESIAN_POINT ( 'NONE',  ( 1.555301434917138827E-15, -12.70000000000000284, 0.7657337882129655604 ) ) ;
#219 = PERSON_AND_ORGANIZATION ( #271, #92 ) ;
#220 = FACE_OUTER_BOUND ( 'NONE', #112, .T. ) ;
#221 = DIRECTION ( 'NONE',  ( -0.0000000000000000000, -0.0000000000000000000, -1.000000000000000000 ) ) ;
#222 = ORIENTED_EDGE ( 'NONE', *, *, #77, .F. ) ;
#223 = VERTEX_POINT ( 'NONE', #281 ) ;
#224 = CARTESIAN_POINT ( 'NONE',  ( 12.70000000000000284, 1.555301434917138827E-15, 0.7657337882129655604 ) ) ;
#225 = CARTESIAN_POINT ( 'NONE',  ( 0.0000000000000000000, 0.0000000000000000000, -1.040000000000000036 ) ) ;
#226 = DIRECTION ( 'NONE',  ( -1.224646799147353207E-16, 1.000000000000000000, 0.0000000000000000000 ) ) ;
#227 = ORIENTED_EDGE ( 'NONE', *, *, #194, .F. ) ;
#228 = DIRECTION ( 'NONE',  ( 0.0000000000000000000, 1.000000000000000000, 3.061515884555943146E-16 ) ) ;
#229 = AXIS2_PLACEMENT_3D ( 'NONE', #139, #352, #185 ) ;
#230 = DIRECTION ( 'NONE',  ( 0.0000000000000000000, 1.000000000000000000, 3.073328992872295381E-16 ) ) ;
#231 = ADVANCED_BREP_SHAPE_REPRESENTATION ( 'TTN099113-E0W', ( #28, #4 ), #7 ) ;
#232 = DIRECTION ( 'NONE',  ( -0.0000000000000000000, -0.0000000000000000000, -1.000000000000000000 ) ) ;
#233 = SPHERICAL_SURFACE ( 'NONE', #46, 1051.996000000000322 ) ;
#234 = VERTEX_POINT ( 'NONE', #260 ) ;
#235 = AXIS2_PLACEMENT_3D ( 'NONE', #199, #64, #14 ) ;
#236 = PERSON_AND_ORGANIZATION_ROLE ( 'creator' ) ;
#237 = APPROVAL_DATE_TIME ( #346, #287 ) ;
#238 = VERTEX_POINT ( 'NONE', #104 ) ;
#239 = APPLICATION_CONTEXT ( 'configuration controlled 3d designs of mechanical parts and assemblies' ) ;
#240 = EDGE_LOOP ( 'NONE', ( #207, #273, #249, #171, #93 ) ) ;
#241 = EDGE_CURVE ( 'NONE', #6, #197, #150, .T. ) ;
#242 = PERSON_AND_ORGANIZATION ( #271, #92 ) ;
#243 = VERTEX_POINT ( 'NONE', #156 ) ;
#244 = ORIENTED_EDGE ( 'NONE', *, *, #338, .T. ) ;
#245 = EDGE_CURVE ( 'NONE', #197, #35, #333, .T. ) ;
#246 = DIRECTION ( 'NONE',  ( -0.0000000000000000000, -0.0000000000000000000, -1.000000000000000000 ) ) ;
#247 = APPROVAL_DATE_TIME ( #129, #10 ) ;
#248 = VECTOR ( 'NONE', #183, 1000.000000000000000 ) ;
#249 = ORIENTED_EDGE ( 'NONE', *, *, #77, .T. ) ;
#250 = CC_DESIGN_PERSON_AND_ORGANIZATION_ASSIGNMENT ( #289, #136, ( #302 ) ) ;
#251 = AXIS2_PLACEMENT_3D ( 'NONE', #142, #246, #121 ) ;
#252 = CARTESIAN_POINT ( 'NONE',  ( -12.50000000000000178, 0.0000000000000000000, 0.9657337882129648499 ) ) ;
#253 = VECTOR ( 'NONE', #91, 1000.000000000000114 ) ;
#254 = VERTEX_POINT ( 'NONE', #348 ) ;
#255 = DIRECTION ( 'NONE',  ( 0.0000000000000000000, 0.0000000000000000000, 1.000000000000000000 ) ) ;
#256 = DIRECTION ( 'NONE',  ( -0.0000000000000000000, 3.061515884555943146E-16, -1.000000000000000000 ) ) ;
#257 = DIRECTION ( 'NONE',  ( -1.000000000000000000, 0.0000000000000000000, 0.0000000000000000000 ) ) ;
#258 = EDGE_CURVE ( 'NONE', #35, #2, #216, .T. ) ;
#259 = CARTESIAN_POINT ( 'NONE',  ( 12.50000000000000178, 1.543054966925665273E-15, 0.9657337882129648499 ) ) ;
#260 = CARTESIAN_POINT ( 'NONE',  ( 12.70000000000000284, 0.0000000000000000000, -0.8400000000000001910 ) ) ;
#261 = AXIS2_PLACEMENT_3D ( 'NONE', #107, #345, #177 ) ;
#262 = CARTESIAN_POINT ( 'NONE',  ( 1.555301434917138827E-15, -12.70000000000000284, -1.040000000000004032 ) ) ;
#263 = CC_DESIGN_PERSON_AND_ORGANIZATION_ASSIGNMENT ( #146, #108, ( #331 ) ) ;
#264 =( LENGTH_UNIT ( ) NAMED_UNIT ( * ) SI_UNIT ( .MILLI., .METRE. ) );
#265 = CIRCLE ( 'NONE', #327, 12.70000000000000284 ) ;
#266 = VERTEX_POINT ( 'NONE', #204 ) ;
#267 = APPLICATION_CONTEXT ( 'configuration controlled 3d designs of mechanical parts and assemblies' ) ;
#268 = CALENDAR_DATE ( 2019, 9, 12 ) ;
#269 = VECTOR ( 'NONE', #110, 1000.000000000000000 ) ;
#270 = ORIENTED_EDGE ( 'NONE', *, *, #178, .F. ) ;
#271 = PERSON ( 'UNSPECIFIED', 'UNSPECIFIED', 'UNSPECIFIED', ('UNSPECIFIED'), ('UNSPECIFIED'), ('UNSPECIFIED') ) ;
#272 = DIRECTION ( 'NONE',  ( 1.000000000000000000, 0.0000000000000000000, -0.0000000000000000000 ) ) ;
#273 = ORIENTED_EDGE ( 'NONE', *, *, #286, .T. ) ;
#274 = ORIENTED_EDGE ( 'NONE', *, *, #357, .T. ) ;
#275 = DIRECTION ( 'NONE',  ( -1.000000000000000000, 0.0000000000000000000, 0.0000000000000000000 ) ) ;
#276 = AXIS2_PLACEMENT_3D ( 'NONE', #44, #70, #349 ) ;
#277 = EDGE_CURVE ( 'NONE', #2, #6, #80, .T. ) ;
#278 = CYLINDRICAL_SURFACE ( 'NONE', #164, 12.70000000000000284 ) ;
#279 = ORIENTED_EDGE ( 'NONE', *, *, #148, .T. ) ;
#280 = DIRECTION ( 'NONE',  ( -0.0000000000000000000, 3.061515884555943146E-16, -1.000000000000000000 ) ) ;
#281 = CARTESIAN_POINT ( 'NONE',  ( 0.0000000000000000000, 12.70000000000000284, -0.8400000000000001910 ) ) ;
#282 = CARTESIAN_POINT ( 'NONE',  ( 0.0000000000000000000, 0.0000000000000000000, 0.9657337882129648499 ) ) ;
#283 = CIRCLE ( 'NONE', #295, 12.70000000000000284 ) ;
#284 = DIRECTION ( 'NONE',  ( -1.000000000000000000, 0.0000000000000000000, 0.0000000000000000000 ) ) ;
#285 = DIRECTION ( 'NONE',  ( -0.0000000000000000000, 3.061515884555943146E-16, -1.000000000000000000 ) ) ;
#286 = EDGE_CURVE ( 'NONE', #99, #27, #11, .T. ) ;
#287 = APPROVAL ( #114, 'UNSPECIFIED' ) ;
#288 = DIRECTION ( 'NONE',  ( 0.0000000000000000000, 0.0000000000000000000, 1.000000000000000000 ) ) ;
#289 = PERSON_AND_ORGANIZATION ( #271, #92 ) ;
#290 = VECTOR ( 'NONE', #21, 1000.000000000000000 ) ;
#291 = ORIENTED_EDGE ( 'NONE', *, *, #97, .T. ) ;
#292 = PERSON_AND_ORGANIZATION_ROLE ( 'creator' ) ;
#293 = ORIENTED_EDGE ( 'NONE', *, *, #178, .T. ) ;
#294 = DATE_TIME_ROLE ( 'creation_date' ) ;
#295 = AXIS2_PLACEMENT_3D ( 'NONE', #339, #167, #191 ) ;
#296 = SECURITY_CLASSIFICATION_LEVEL ( 'unclassified' ) ;
#297 = ORIENTED_EDGE ( 'NONE', *, *, #301, .F. ) ;
#298 = CC_DESIGN_PERSON_AND_ORGANIZATION_ASSIGNMENT ( #323, #355, ( #217 ) ) ;
#299 = AXIS2_PLACEMENT_3D ( 'NONE', #282, #45, #131 ) ;
#300 = EDGE_LOOP ( 'NONE', ( #32, #12, #274, #279, #13 ) ) ;
#301 = EDGE_CURVE ( 'NONE', #2, #334, #180, .T. ) ;
#302 = PRODUCT_DEFINITION_FORMATION_WITH_SPECIFIED_SOURCE ( 'ANY', '', #331, .NOT_KNOWN. ) ;
#303 = CARTESIAN_POINT ( 'NONE',  ( 0.0000000000000000000, 0.0000000000000000000, -0.8400000000000001910 ) ) ;
#304 = PERSON_AND_ORGANIZATION ( #271, #92 ) ;
#305 = CARTESIAN_POINT ( 'NONE',  ( -12.50000000000000178, 1.543054966925665273E-15, -1.040000000000000036 ) ) ;
#306 = EDGE_CURVE ( 'NONE', #57, #334, #359, .T. ) ;
#307 = FACE_OUTER_BOUND ( 'NONE', #117, .T. ) ;
#308 = CARTESIAN_POINT ( 'NONE',  ( 0.0000000000000000000, 0.0000000000000000000, -0.8400000000000001910 ) ) ;
#309 = CC_DESIGN_APPROVAL ( #287, ( #361 ) ) ;
#310 = CARTESIAN_POINT ( 'NONE',  ( 12.50000000000000178, 1.530808498934191719E-15, 0.9657337882129648499 ) ) ;
#311 = DIRECTION ( 'NONE',  ( 0.0000000000000000000, 1.000000000000000000, 3.073328992872295381E-16 ) ) ;
#312 = ORIENTED_EDGE ( 'NONE', *, *, #30, .T. ) ;
#313 = CARTESIAN_POINT ( 'NONE',  ( -12.50000000000000178, 0.0000000000000000000, 0.9657337882129648499 ) ) ;
#314 = CC_DESIGN_DATE_AND_TIME_ASSIGNMENT ( #153, #24, ( #217 ) ) ;
#315 = CARTESIAN_POINT ( 'NONE',  ( 0.0000000000000000000, 0.0000000000000000000, 0.7657337882129655604 ) ) ;
#316 = APPROVAL_DATE_TIME ( #43, #20 ) ;
#317 = ORIENTED_EDGE ( 'NONE', *, *, #115, .T. ) ;
#318 = AXIS2_PLACEMENT_3D ( 'NONE', #303, #337, #275 ) ;
#319 = ORIENTED_EDGE ( 'NONE', *, *, #306, .F. ) ;
#320 = CARTESIAN_POINT ( 'NONE',  ( 0.0000000000000000000, 1.285758296706851804E-13, -1050.956000000000358 ) ) ;
#321 =( NAMED_UNIT ( * ) PLANE_ANGLE_UNIT ( ) SI_UNIT ( $, .RADIAN. ) );
#322 = APPROVAL_STATUS ( 'not_yet_approved' ) ;
#323 = PERSON_AND_ORGANIZATION ( #271, #92 ) ;
#324 = EDGE_LOOP ( 'NONE', ( #3, #86, #18, #74, #319, #106 ) ) ;
#325 = APPROVAL_ROLE ( '' ) ;
#326 = CARTESIAN_POINT ( 'NONE',  ( 0.0000000000000000000, 0.0000000000000000000, 0.0000000000000000000 ) ) ;
#327 = AXIS2_PLACEMENT_3D ( 'NONE', #198, #221, #39 ) ;
#328 = APPROVAL_PERSON_ORGANIZATION ( #200, #287, #325 ) ;
#329 = SPHERICAL_SURFACE ( 'NONE', #59, 1051.996000000000322 ) ;
#330 = EDGE_LOOP ( 'NONE', ( #270, #75, #166, #36 ) ) ;
#331 = PRODUCT ( 'TTN099113-E0W', 'TTN099113-E0W', '', ( #163 ) ) ;
#332 = CALENDAR_DATE ( 2019, 9, 12 ) ;
#333 = CIRCLE ( 'NONE', #88, 12.50000000000000178 ) ;
#334 = VERTEX_POINT ( 'NONE', #205 ) ;
#335 = ADVANCED_FACE ( 'NONE', ( #154 ), #278, .T. ) ;
#336 = CARTESIAN_POINT ( 'NONE',  ( 0.0000000000000000000, 1.285758296706851804E-13, -1050.956000000000358 ) ) ;
#337 = DIRECTION ( 'NONE',  ( -0.0000000000000000000, -0.0000000000000000000, -1.000000000000000000 ) ) ;
#338 = EDGE_CURVE ( 'NONE', #238, #99, #133, .T. ) ;
#339 = CARTESIAN_POINT ( 'NONE',  ( 0.0000000000000000000, 0.0000000000000000000, 0.7657337882129655604 ) ) ;
#340 = DIRECTION ( 'NONE',  ( -1.000000000000000000, 0.0000000000000000000, 0.0000000000000000000 ) ) ;
#341 = FACE_OUTER_BOUND ( 'NONE', #122, .T. ) ;
#342 = CALENDAR_DATE ( 2019, 9, 12 ) ;
#343 = DIRECTION ( 'NONE',  ( -0.0000000000000000000, -0.0000000000000000000, -1.000000000000000000 ) ) ;
#344 = ORIENTED_EDGE ( 'NONE', *, *, #358, .T. ) ;
#345 = DIRECTION ( 'NONE',  ( -0.0000000000000000000, -0.0000000000000000000, -1.000000000000000000 ) ) ;
#346 = DATE_AND_TIME ( #170, #22 ) ;
#347 = VECTOR ( 'NONE', #102, 1000.000000000000114 ) ;
#348 = CARTESIAN_POINT ( 'NONE',  ( 1.555301434917138827E-15, -12.70000000000000284, -0.8400000000000001910 ) ) ;
#349 = DIRECTION ( 'NONE',  ( -1.000000000000000000, 0.0000000000000000000, 0.0000000000000000000 ) ) ;
#350 = CC_DESIGN_PERSON_AND_ORGANIZATION_ASSIGNMENT ( #219, #236, ( #361 ) ) ;
#351 = APPROVAL_PERSON_ORGANIZATION ( #65, #10, #182 ) ;
#352 = DIRECTION ( 'NONE',  ( -0.0000000000000000000, -0.0000000000000000000, -1.000000000000000000 ) ) ;
#353 = CYLINDRICAL_SURFACE ( 'NONE', #40, 12.70000000000000284 ) ;
#354 = ORIENTED_EDGE ( 'NONE', *, *, #186, .T. ) ;
#355 = PERSON_AND_ORGANIZATION_ROLE ( 'classification_officer' ) ;
#356 = APPLICATION_PROTOCOL_DEFINITION ( 'international standard', 'config_control_design', 1994, #239 ) ;
#357 = EDGE_CURVE ( 'NONE', #238, #234, #5, .T. ) ;
#358 = EDGE_CURVE ( 'NONE', #57, #254, #206, .T. ) ;
#359 = CIRCLE ( 'NONE', #29, 12.70000000000000284 ) ;
#360 = APPROVAL_STATUS ( 'not_yet_approved' ) ;
#361 = PRODUCT_DEFINITION ( 'UNKNOWN', '', #302, #109 ) ;
ENDSEC;
END-ISO-10303-21;
