ISO-10303-21;
HEADER;
FILE_DESCRIPTION (( 'STEP AP203' ),
    '1' );
FILE_NAME ('Web Model 15423_15791.step',
    '2020-11-03T22:06:59',
    ( '' ),
    ( '' ),
    'SwSTEP 2.0',
    'SolidWorks 2018',
    '' );
FILE_SCHEMA (( 'CONFIG_CONTROL_DESIGN' ));
ENDSEC;

DATA;
#1 = PERSON_AND_ORGANIZATION ( #8, #161 ) ;
#2 = APPROVAL_DATE_TIME ( #115, #64 ) ;
#3 = AXIS2_PLACEMENT_3D ( 'NONE', #114, #42, #158 ) ;
#4 = APPLICATION_CONTEXT ( 'configuration controlled 3d designs of mechanical parts and assemblies' ) ;
#5 = PERSON_AND_ORGANIZATION_ROLE ( 'design_supplier' ) ;
#6 = CC_DESIGN_PERSON_AND_ORGANIZATION_ASSIGNMENT ( #18, #5, ( #99 ) ) ;
#7 = DIRECTION ( 'NONE',  ( 1.000000000000000000, 0.0000000000000000000, 0.0000000000000000000 ) ) ;
#8 = PERSON ( 'UNSPECIFIED', 'UNSPECIFIED', 'UNSPECIFIED', ('UNSPECIFIED'), ('UNSPECIFIED'), ('UNSPECIFIED') ) ;
#9 = CYLINDRICAL_SURFACE ( 'NONE', #163, 6.349999999999999645 ) ;
#10 = ORIENTED_EDGE ( 'NONE', *, *, #31, .F. ) ;
#11 = DIRECTION ( 'NONE',  ( 0.0000000000000000000, 0.0000000000000000000, 1.000000000000000000 ) ) ;
#12 = APPROVAL_PERSON_ORGANIZATION ( #142, #65, #95 ) ;
#13 = EDGE_LOOP ( 'NONE', ( #10, #54, #153, #93 ) ) ;
#14 = PRODUCT_DEFINITION ( 'UNKNOWN', '', #99, #145 ) ;
#15 = CALENDAR_DATE ( 2020, 3, 11 ) ;
#16 = ORIENTED_EDGE ( 'NONE', *, *, #27, .F. ) ;
#17 = LOCAL_TIME ( 17, 6, 59.00000000000000000, #35 ) ;
#18 = PERSON_AND_ORGANIZATION ( #8, #161 ) ;
#19 = ORIENTED_EDGE ( 'NONE', *, *, #124, .F. ) ;
#20 = PRODUCT ( 'Web Model 15423_15791', 'Web Model 15423_15791', '', ( #137 ) ) ;
#21 = CC_DESIGN_APPROVAL ( #64, ( #14 ) ) ;
#22 = CC_DESIGN_SECURITY_CLASSIFICATION ( #130, ( #99 ) ) ;
#23 = EDGE_LOOP ( 'NONE', ( #162, #16, #125, #86 ) ) ;
#24 = CC_DESIGN_DATE_AND_TIME_ASSIGNMENT ( #29, #74, ( #130 ) ) ;
#25 = DATE_AND_TIME ( #66, #109 ) ;
#26 = ADVANCED_FACE ( 'NONE', ( #46 ), #131, .F. ) ;
#27 = EDGE_CURVE ( 'NONE', #164, #80, #147, .T. ) ;
#28 = PERSON_AND_ORGANIZATION_ROLE ( 'creator' ) ;
#29 = DATE_AND_TIME ( #47, #123 ) ;
#30 = LOCAL_TIME ( 17, 6, 59.00000000000000000, #143 ) ;
#31 = EDGE_CURVE ( 'NONE', #80, #164, #73, .T. ) ;
#32 = CARTESIAN_POINT ( 'NONE',  ( 0.0000000000000000000, 0.0000000000000000000, -1.500000000000000000 ) ) ;
#33 = PERSON_AND_ORGANIZATION ( #8, #161 ) ;
#34 = ADVANCED_BREP_SHAPE_REPRESENTATION ( 'Web Model 15423_15791', ( #58, #3 ), #72 ) ;
#35 = COORDINATED_UNIVERSAL_TIME_OFFSET ( 5, 0, .BEHIND. ) ;
#36 = ORIENTED_EDGE ( 'NONE', *, *, #31, .T. ) ;
#37 = CC_DESIGN_PERSON_AND_ORGANIZATION_ASSIGNMENT ( #39, #83, ( #20 ) ) ;
#38 = CALENDAR_DATE ( 2020, 3, 11 ) ;
#39 = PERSON_AND_ORGANIZATION ( #8, #161 ) ;
#40 = LINE ( 'NONE', #117, #149 ) ;
#41 = AXIS2_PLACEMENT_3D ( 'NONE', #87, #11, #118 ) ;
#42 = DIRECTION ( 'NONE',  ( 0.0000000000000000000, 0.0000000000000000000, 1.000000000000000000 ) ) ;
#43 = APPLICATION_CONTEXT ( 'configuration controlled 3d designs of mechanical parts and assemblies' ) ;
#44 = EDGE_CURVE ( 'NONE', #159, #150, #62, .T. ) ;
#45 =( LENGTH_UNIT ( ) NAMED_UNIT ( * ) SI_UNIT ( .MILLI., .METRE. ) );
#46 = FACE_OUTER_BOUND ( 'NONE', #89, .T. ) ;
#47 = CALENDAR_DATE ( 2020, 3, 11 ) ;
#48 = ORIENTED_EDGE ( 'NONE', *, *, #44, .F. ) ;
#49 = EDGE_CURVE ( 'NONE', #80, #159, #40, .T. ) ;
#50 = APPROVAL_PERSON_ORGANIZATION ( #88, #64, #157 ) ;
#51 = APPROVAL_STATUS ( 'not_yet_approved' ) ;
#52 = APPLICATION_PROTOCOL_DEFINITION ( 'international standard', 'config_control_design', 1994, #43 ) ;
#53 = ADVANCED_FACE ( 'NONE', ( #92 ), #77, .T. ) ;
#54 = ORIENTED_EDGE ( 'NONE', *, *, #49, .T. ) ;
#55 = APPROVAL_STATUS ( 'not_yet_approved' ) ;
#56 = DIRECTION ( 'NONE',  ( 0.0000000000000000000, 0.0000000000000000000, 1.000000000000000000 ) ) ;
#57 = CLOSED_SHELL ( 'NONE', ( #127, #68, #53, #26 ) ) ;
#58 = MANIFOLD_SOLID_BREP ( 'Boss-Extrude1', #57 ) ;
#59 = CC_DESIGN_PERSON_AND_ORGANIZATION_ASSIGNMENT ( #78, #28, ( #14 ) ) ;
#60 = DIRECTION ( 'NONE',  ( -0.0000000000000000000, -0.0000000000000000000, -1.000000000000000000 ) ) ;
#61 = PERSON_AND_ORGANIZATION ( #8, #161 ) ;
#62 = CIRCLE ( 'NONE', #41, 6.349999999999999645 ) ;
#63 = DIRECTION ( 'NONE',  ( -1.000000000000000000, 0.0000000000000000000, 0.0000000000000000000 ) ) ;
#64 = APPROVAL ( #51, 'UNSPECIFIED' ) ;
#65 = APPROVAL ( #112, 'UNSPECIFIED' ) ;
#66 = CALENDAR_DATE ( 2020, 3, 11 ) ;
#67 = VECTOR ( 'NONE', #69, 1000.000000000000000 ) ;
#68 = ADVANCED_FACE ( 'NONE', ( #175 ), #126, .T. ) ;
#69 = DIRECTION ( 'NONE',  ( -0.0000000000000000000, -0.0000000000000000000, -1.000000000000000000 ) ) ;
#70 = COORDINATED_UNIVERSAL_TIME_OFFSET ( 5, 0, .BEHIND. ) ;
#71 = PERSON_AND_ORGANIZATION_ROLE ( 'classification_officer' ) ;
#72 =( GEOMETRIC_REPRESENTATION_CONTEXT ( 3 ) GLOBAL_UNCERTAINTY_ASSIGNED_CONTEXT ( ( #168 ) ) GLOBAL_UNIT_ASSIGNED_CONTEXT ( ( #45, #113, #84 ) ) REPRESENTATION_CONTEXT ( 'NONE', 'WORKASPACE' ) );
#73 = CIRCLE ( 'NONE', #91, 6.349999999999999645 ) ;
#74 = DATE_TIME_ROLE ( 'classification_date' ) ;
#75 = DIRECTION ( 'NONE',  ( 1.000000000000000000, 0.0000000000000000000, -0.0000000000000000000 ) ) ;
#76 = CC_DESIGN_DATE_AND_TIME_ASSIGNMENT ( #116, #102, ( #14 ) ) ;
#77 = PLANE ( 'NONE',  #151 ) ;
#78 = PERSON_AND_ORGANIZATION ( #8, #161 ) ;
#79 = EDGE_LOOP ( 'NONE', ( #129, #36 ) ) ;
#80 = VERTEX_POINT ( 'NONE', #167 ) ;
#81 = AXIS2_PLACEMENT_3D ( 'NONE', #32, #107, #110 ) ;
#82 = COORDINATED_UNIVERSAL_TIME_OFFSET ( 5, 0, .BEHIND. ) ;
#83 = PERSON_AND_ORGANIZATION_ROLE ( 'design_owner' ) ;
#84 =( NAMED_UNIT ( * ) SI_UNIT ( $, .STERADIAN. ) SOLID_ANGLE_UNIT ( ) );
#85 = CC_DESIGN_APPROVAL ( #65, ( #130 ) ) ;
#86 = ORIENTED_EDGE ( 'NONE', *, *, #124, .T. ) ;
#87 = CARTESIAN_POINT ( 'NONE',  ( 0.0000000000000000000, 0.0000000000000000000, -1.500000000000000000 ) ) ;
#88 = PERSON_AND_ORGANIZATION ( #8, #161 ) ;
#89 = EDGE_LOOP ( 'NONE', ( #19, #48 ) ) ;
#90 = CARTESIAN_POINT ( 'NONE',  ( 0.0000000000000000000, 0.0000000000000000000, 1.500000000000000000 ) ) ;
#91 = AXIS2_PLACEMENT_3D ( 'NONE', #146, #144, #170 ) ;
#92 = FACE_OUTER_BOUND ( 'NONE', #79, .T. ) ;
#93 = ORIENTED_EDGE ( 'NONE', *, *, #140, .F. ) ;
#94 = CARTESIAN_POINT ( 'NONE',  ( -6.349999999999999645, 0.0000000000000000000, 1.500000000000000000 ) ) ;
#95 = APPROVAL_ROLE ( '' ) ;
#96 = CC_DESIGN_APPROVAL ( #166, ( #99 ) ) ;
#97 = SECURITY_CLASSIFICATION_LEVEL ( 'unclassified' ) ;
#98 = CARTESIAN_POINT ( 'NONE',  ( 6.349999999999999645, 7.776507174585692163E-16, -1.500000000000000000 ) ) ;
#99 = PRODUCT_DEFINITION_FORMATION_WITH_SPECIFIED_SOURCE ( 'ANY', '', #20, .NOT_KNOWN. ) ;
#100 = DIRECTION ( 'NONE',  ( -1.000000000000000000, 0.0000000000000000000, 0.0000000000000000000 ) ) ;
#101 = APPROVAL_PERSON_ORGANIZATION ( #61, #166, #155 ) ;
#102 = DATE_TIME_ROLE ( 'creation_date' ) ;
#103 = DIRECTION ( 'NONE',  ( 0.0000000000000000000, 0.0000000000000000000, 1.000000000000000000 ) ) ;
#104 = AXIS2_PLACEMENT_3D ( 'NONE', #169, #56, #7 ) ;
#105 = LINE ( 'NONE', #94, #67 ) ;
#106 = CARTESIAN_POINT ( 'NONE',  ( 0.0000000000000000000, 0.0000000000000000000, 1.500000000000000000 ) ) ;
#107 = DIRECTION ( 'NONE',  ( 0.0000000000000000000, 0.0000000000000000000, 1.000000000000000000 ) ) ;
#108 = CARTESIAN_POINT ( 'NONE',  ( 0.0000000000000000000, 0.0000000000000000000, 1.500000000000000000 ) ) ;
#109 = LOCAL_TIME ( 17, 6, 59.00000000000000000, #70 ) ;
#110 = DIRECTION ( 'NONE',  ( 1.000000000000000000, 0.0000000000000000000, -0.0000000000000000000 ) ) ;
#111 = FACE_OUTER_BOUND ( 'NONE', #13, .T. ) ;
#112 = APPROVAL_STATUS ( 'not_yet_approved' ) ;
#113 =( NAMED_UNIT ( * ) PLANE_ANGLE_UNIT ( ) SI_UNIT ( $, .RADIAN. ) );
#114 = CARTESIAN_POINT ( 'NONE',  ( 0.0000000000000000000, 0.0000000000000000000, 0.0000000000000000000 ) ) ;
#115 = DATE_AND_TIME ( #122, #17 ) ;
#116 = DATE_AND_TIME ( #38, #30 ) ;
#117 = CARTESIAN_POINT ( 'NONE',  ( 6.349999999999999645, 7.776507174585692163E-16, 1.500000000000000000 ) ) ;
#118 = DIRECTION ( 'NONE',  ( 1.000000000000000000, 0.0000000000000000000, 0.0000000000000000000 ) ) ;
#119 = DIRECTION ( 'NONE',  ( -0.0000000000000000000, -0.0000000000000000000, -1.000000000000000000 ) ) ;
#120 = APPROVAL_DATE_TIME ( #152, #65 ) ;
#121 = AXIS2_PLACEMENT_3D ( 'NONE', #106, #119, #100 ) ;
#122 = CALENDAR_DATE ( 2020, 3, 11 ) ;
#123 = LOCAL_TIME ( 17, 6, 59.00000000000000000, #82 ) ;
#124 = EDGE_CURVE ( 'NONE', #150, #159, #136, .T. ) ;
#125 = ORIENTED_EDGE ( 'NONE', *, *, #140, .T. ) ;
#126 = CYLINDRICAL_SURFACE ( 'NONE', #121, 6.349999999999999645 ) ;
#127 = ADVANCED_FACE ( 'NONE', ( #111 ), #9, .T. ) ;
#128 = APPLICATION_PROTOCOL_DEFINITION ( 'international standard', 'config_control_design', 1994, #4 ) ;
#129 = ORIENTED_EDGE ( 'NONE', *, *, #27, .T. ) ;
#130 = SECURITY_CLASSIFICATION ( '', '', #97 ) ;
#131 = PLANE ( 'NONE',  #81 ) ;
#132 = CC_DESIGN_PERSON_AND_ORGANIZATION_ASSIGNMENT ( #1, #71, ( #130 ) ) ;
#133 = DIRECTION ( 'NONE',  ( 0.0000000000000000000, 0.0000000000000000000, 1.000000000000000000 ) ) ;
#134 = AXIS2_PLACEMENT_3D ( 'NONE', #173, #133, #174 ) ;
#135 = APPROVAL_DATE_TIME ( #25, #166 ) ;
#136 = CIRCLE ( 'NONE', #104, 6.349999999999999645 ) ;
#137 = MECHANICAL_CONTEXT ( 'NONE', #4, 'mechanical' ) ;
#138 = PRODUCT_RELATED_PRODUCT_CATEGORY ( 'detail', '', ( #20 ) ) ;
#139 = CARTESIAN_POINT ( 'NONE',  ( -6.349999999999999645, 0.0000000000000000000, -1.500000000000000000 ) ) ;
#140 = EDGE_CURVE ( 'NONE', #164, #150, #105, .T. ) ;
#141 = PERSON_AND_ORGANIZATION_ROLE ( 'creator' ) ;
#142 = PERSON_AND_ORGANIZATION ( #8, #161 ) ;
#143 = COORDINATED_UNIVERSAL_TIME_OFFSET ( 5, 0, .BEHIND. ) ;
#144 = DIRECTION ( 'NONE',  ( 0.0000000000000000000, 0.0000000000000000000, 1.000000000000000000 ) ) ;
#145 = DESIGN_CONTEXT ( 'detailed design', #43, 'design' ) ;
#146 = CARTESIAN_POINT ( 'NONE',  ( 0.0000000000000000000, 0.0000000000000000000, 1.500000000000000000 ) ) ;
#147 = CIRCLE ( 'NONE', #134, 6.349999999999999645 ) ;
#148 = LOCAL_TIME ( 17, 6, 59.00000000000000000, #156 ) ;
#149 = VECTOR ( 'NONE', #160, 1000.000000000000000 ) ;
#150 = VERTEX_POINT ( 'NONE', #139 ) ;
#151 = AXIS2_PLACEMENT_3D ( 'NONE', #108, #103, #75 ) ;
#152 = DATE_AND_TIME ( #15, #148 ) ;
#153 = ORIENTED_EDGE ( 'NONE', *, *, #44, .T. ) ;
#154 = PRODUCT_DEFINITION_SHAPE ( 'NONE', 'NONE',  #14 ) ;
#155 = APPROVAL_ROLE ( '' ) ;
#156 = COORDINATED_UNIVERSAL_TIME_OFFSET ( 5, 0, .BEHIND. ) ;
#157 = APPROVAL_ROLE ( '' ) ;
#158 = DIRECTION ( 'NONE',  ( 1.000000000000000000, 0.0000000000000000000, 0.0000000000000000000 ) ) ;
#159 = VERTEX_POINT ( 'NONE', #98 ) ;
#160 = DIRECTION ( 'NONE',  ( -0.0000000000000000000, -0.0000000000000000000, -1.000000000000000000 ) ) ;
#161 = ORGANIZATION ( 'UNSPECIFIED', 'UNSPECIFIED', '' ) ;
#162 = ORIENTED_EDGE ( 'NONE', *, *, #49, .F. ) ;
#163 = AXIS2_PLACEMENT_3D ( 'NONE', #90, #60, #63 ) ;
#164 = VERTEX_POINT ( 'NONE', #165 ) ;
#165 = CARTESIAN_POINT ( 'NONE',  ( -6.349999999999999645, 0.0000000000000000000, 1.500000000000000000 ) ) ;
#166 = APPROVAL ( #55, 'UNSPECIFIED' ) ;
#167 = CARTESIAN_POINT ( 'NONE',  ( 6.349999999999999645, 7.776507174585692163E-16, 1.500000000000000000 ) ) ;
#168 = UNCERTAINTY_MEASURE_WITH_UNIT (LENGTH_MEASURE( 1.000000000000000082E-05 ), #45, 'distance_accuracy_value', 'NONE');
#169 = CARTESIAN_POINT ( 'NONE',  ( 0.0000000000000000000, 0.0000000000000000000, -1.500000000000000000 ) ) ;
#170 = DIRECTION ( 'NONE',  ( 1.000000000000000000, 0.0000000000000000000, 0.0000000000000000000 ) ) ;
#171 = CC_DESIGN_PERSON_AND_ORGANIZATION_ASSIGNMENT ( #33, #141, ( #99 ) ) ;
#172 = SHAPE_DEFINITION_REPRESENTATION ( #154, #34 ) ;
#173 = CARTESIAN_POINT ( 'NONE',  ( 0.0000000000000000000, 0.0000000000000000000, 1.500000000000000000 ) ) ;
#174 = DIRECTION ( 'NONE',  ( 1.000000000000000000, 0.0000000000000000000, 0.0000000000000000000 ) ) ;
#175 = FACE_OUTER_BOUND ( 'NONE', #23, .T. ) ;
ENDSEC;
END-ISO-10303-21;
