ISO-10303-21;
HEADER;
FILE_DESCRIPTION (( 'STEP AP203' ),
    '1' );
FILE_NAME ('Web Model 64402MX_41019.step',
    '2017-10-30T13:08:50',
    ( '' ),
    ( '' ),
    'SwSTEP 2.0',
    'SolidWorks 2016',
    '' );
FILE_SCHEMA (( 'CONFIG_CONTROL_DESIGN' ));
ENDSEC;

DATA;
#1 = APPLICATION_PROTOCOL_DEFINITION ( 'international standard', 'config_control_design', 1994, #18 ) ;
#2 = DIRECTION ( 'NONE',  ( 0.0000000000000000000, -0.0000000000000000000, 1.000000000000000000 ) ) ;
#3 = VECTOR ( 'NONE', #61, 1000.000000000000000 ) ;
#4 = FACE_OUTER_BOUND ( 'NONE', #88, .T. ) ;
#5 = APPROVAL_ROLE ( '' ) ;
#6 = FACE_OUTER_BOUND ( 'NONE', #37, .T. ) ;
#7 = DIRECTION ( 'NONE',  ( 1.000000000000000000, 0.0000000000000000000, 0.0000000000000000000 ) ) ;
#8 = CC_DESIGN_PERSON_AND_ORGANIZATION_ASSIGNMENT ( #233, #134, ( #225 ) ) ;
#9 = VERTEX_POINT ( 'NONE', #69 ) ;
#10 = EDGE_CURVE ( 'NONE', #102, #72, #111, .T. ) ;
#11 = ORIENTED_EDGE ( 'NONE', *, *, #231, .F. ) ;
#12 = PRODUCT_DEFINITION ( 'UNKNOWN', '', #225, #46 ) ;
#13 = DATE_AND_TIME ( #201, #208 ) ;
#14 = APPROVAL_PERSON_ORGANIZATION ( #177, #169, #216 ) ;
#15 = ORIENTED_EDGE ( 'NONE', *, *, #205, .F. ) ;
#16 = PLANE ( 'NONE',  #158 ) ;
#17 = DIRECTION ( 'NONE',  ( 1.000000000000000000, 0.0000000000000000000, -0.0000000000000000000 ) ) ;
#18 = APPLICATION_CONTEXT ( 'configuration controlled 3d designs of mechanical parts and assemblies' ) ;
#19 = CARTESIAN_POINT ( 'NONE',  ( 12.49999999999999800, -12.49999999999999600, 4.750000000000000000 ) ) ;
#20 = EDGE_CURVE ( 'NONE', #47, #101, #224, .T. ) ;
#21 = DIRECTION ( 'NONE',  ( 1.387778780781445700E-016, -1.000000000000000000, 0.0000000000000000000 ) ) ;
#22 = PERSON_AND_ORGANIZATION ( #126, #31 ) ;
#23 = APPROVAL ( #178, 'UNSPECIFIED' ) ;
#24 = CC_DESIGN_PERSON_AND_ORGANIZATION_ASSIGNMENT ( #68, #193, ( #44 ) ) ;
#25 = ADVANCED_FACE ( 'NONE', ( #160 ), #229, .F. ) ;
#26 = PERSON_AND_ORGANIZATION_ROLE ( 'creator' ) ;
#27 = ORIENTED_EDGE ( 'NONE', *, *, #97, .F. ) ;
#28 = AXIS2_PLACEMENT_3D ( 'NONE', #35, #2, #17 ) ;
#29 = ORIENTED_EDGE ( 'NONE', *, *, #218, .F. ) ;
#30 = EDGE_CURVE ( 'NONE', #47, #9, #167, .T. ) ;
#31 = ORGANIZATION ( 'UNSPECIFIED', 'UNSPECIFIED', '' ) ;
#32 = ORIENTED_EDGE ( 'NONE', *, *, #227, .T. ) ;
#33 = COORDINATED_UNIVERSAL_TIME_OFFSET ( 5, 0, .BEHIND. ) ;
#34 =( NAMED_UNIT ( * ) SI_UNIT ( $, .STERADIAN. ) SOLID_ANGLE_UNIT ( ) );
#35 = CARTESIAN_POINT ( 'NONE',  ( 0.0000000000000000000, 0.0000000000000000000, 4.750000000000000000 ) ) ;
#36 = SECURITY_CLASSIFICATION_LEVEL ( 'unclassified' ) ;
#37 = EDGE_LOOP ( 'NONE', ( #194, #142, #98, #184 ) ) ;
#38 =( LENGTH_UNIT ( ) NAMED_UNIT ( * ) SI_UNIT ( .MILLI., .METRE. ) );
#39 = CARTESIAN_POINT ( 'NONE',  ( -12.50000000000000200, 12.50000000000000000, 4.750000000000000000 ) ) ;
#40 = CARTESIAN_POINT ( 'NONE',  ( 12.49999999999999800, -12.49999999999999600, -4.750000000000000000 ) ) ;
#41 = AXIS2_PLACEMENT_3D ( 'NONE', #137, #146, #76 ) ;
#42 = CALENDAR_DATE ( 2017, 30, 10 ) ;
#43 = COORDINATED_UNIVERSAL_TIME_OFFSET ( 5, 0, .BEHIND. ) ;
#44 = PRODUCT ( 'Web Model 64402MX_41019', 'Web Model 64402MX_41019', '', ( #118 ) ) ;
#45 = VECTOR ( 'NONE', #174, 1000.000000000000000 ) ;
#46 = DESIGN_CONTEXT ( 'detailed design', #18, 'design' ) ;
#47 = VERTEX_POINT ( 'NONE', #96 ) ;
#48 = FACE_OUTER_BOUND ( 'NONE', #179, .T. ) ;
#49 = FACE_OUTER_BOUND ( 'NONE', #183, .T. ) ;
#50 = CARTESIAN_POINT ( 'NONE',  ( 12.49999999999999800, 12.50000000000000400, 4.750000000000000000 ) ) ;
#51 = VECTOR ( 'NONE', #234, 1000.000000000000000 ) ;
#52 = DIRECTION ( 'NONE',  ( 1.000000000000000000, 0.0000000000000000000, -0.0000000000000000000 ) ) ;
#53 = LINE ( 'NONE', #191, #51 ) ;
#54 = CC_DESIGN_PERSON_AND_ORGANIZATION_ASSIGNMENT ( #200, #151, ( #73 ) ) ;
#55 = APPROVAL_PERSON_ORGANIZATION ( #108, #23, #5 ) ;
#56 = ORIENTED_EDGE ( 'NONE', *, *, #66, .F. ) ;
#57 = ORIENTED_EDGE ( 'NONE', *, *, #10, .F. ) ;
#58 = DATE_TIME_ROLE ( 'creation_date' ) ;
#59 = LOCAL_TIME ( 9, 8, 50.00000000000000000, #196 ) ;
#60 = VECTOR ( 'NONE', #152, 1000.000000000000000 ) ;
#61 = DIRECTION ( 'NONE',  ( 0.0000000000000000000, 1.000000000000000000, 0.0000000000000000000 ) ) ;
#62 = CARTESIAN_POINT ( 'NONE',  ( 12.49999999999999800, 12.50000000000000400, 4.750000000000000000 ) ) ;
#63 = ORIENTED_EDGE ( 'NONE', *, *, #80, .F. ) ;
#64 = VECTOR ( 'NONE', #136, 1000.000000000000000 ) ;
#65 = CC_DESIGN_APPROVAL ( #23, ( #73 ) ) ;
#66 = EDGE_CURVE ( 'NONE', #9, #204, #53, .T. ) ;
#67 = APPROVAL_DATE_TIME ( #166, #169 ) ;
#68 = PERSON_AND_ORGANIZATION ( #126, #31 ) ;
#69 = CARTESIAN_POINT ( 'NONE',  ( -12.50000000000000200, -12.50000000000000000, -4.750000000000000000 ) ) ;
#70 = CC_DESIGN_DATE_AND_TIME_ASSIGNMENT ( #154, #139, ( #73 ) ) ;
#71 = VECTOR ( 'NONE', #173, 1000.000000000000000 ) ;
#72 = VERTEX_POINT ( 'NONE', #130 ) ;
#73 = SECURITY_CLASSIFICATION ( '', '', #36 ) ;
#74 = APPLICATION_CONTEXT ( 'configuration controlled 3d designs of mechanical parts and assemblies' ) ;
#75 = PERSON_AND_ORGANIZATION ( #126, #31 ) ;
#76 = DIRECTION ( 'NONE',  ( 0.0000000000000000000, 0.0000000000000000000, 1.000000000000000000 ) ) ;
#77 = ORIENTED_EDGE ( 'NONE', *, *, #66, .T. ) ;
#78 = AXIS2_PLACEMENT_3D ( 'NONE', #170, #115, #52 ) ;
#79 = CC_DESIGN_APPROVAL ( #169, ( #225 ) ) ;
#80 = EDGE_CURVE ( 'NONE', #101, #204, #113, .T. ) ;
#81 = PRODUCT_RELATED_PRODUCT_CATEGORY ( 'detail', '', ( #44 ) ) ;
#82 = CC_DESIGN_APPROVAL ( #181, ( #12 ) ) ;
#83 = ORIENTED_EDGE ( 'NONE', *, *, #20, .F. ) ;
#84 = VECTOR ( 'NONE', #162, 1000.000000000000000 ) ;
#85 = VERTEX_POINT ( 'NONE', #114 ) ;
#86 = ORIENTED_EDGE ( 'NONE', *, *, #218, .T. ) ;
#87 = VECTOR ( 'NONE', #188, 1000.000000000000000 ) ;
#88 = EDGE_LOOP ( 'NONE', ( #77, #63, #83, #106 ) ) ;
#89 = CARTESIAN_POINT ( 'NONE',  ( 12.49999999999999800, 12.50000000000000400, -4.750000000000000000 ) ) ;
#90 = CARTESIAN_POINT ( 'NONE',  ( 12.49999999999999800, -12.49999999999999600, 4.750000000000000000 ) ) ;
#91 = CARTESIAN_POINT ( 'NONE',  ( 12.49999999999999800, -12.49999999999999600, 4.750000000000000000 ) ) ;
#92 = AXIS2_PLACEMENT_3D ( 'NONE', #62, #21, #176 ) ;
#93 = APPROVAL_STATUS ( 'not_yet_approved' ) ;
#94 = DIRECTION ( 'NONE',  ( -0.0000000000000000000, -0.0000000000000000000, -1.000000000000000000 ) ) ;
#95 = DIRECTION ( 'NONE',  ( 0.0000000000000000000, 0.0000000000000000000, 1.000000000000000000 ) ) ;
#96 = CARTESIAN_POINT ( 'NONE',  ( -12.50000000000000200, -12.50000000000000000, 4.750000000000000000 ) ) ;
#97 = EDGE_CURVE ( 'NONE', #101, #102, #144, .T. ) ;
#98 = ORIENTED_EDGE ( 'NONE', *, *, #97, .T. ) ;
#99 = ADVANCED_FACE ( 'NONE', ( #4 ), #16, .F. ) ;
#100 = CC_DESIGN_PERSON_AND_ORGANIZATION_ASSIGNMENT ( #75, #26, ( #12 ) ) ;
#101 = VERTEX_POINT ( 'NONE', #116 ) ;
#102 = VERTEX_POINT ( 'NONE', #217 ) ;
#103 = DIRECTION ( 'NONE',  ( 1.000000000000000000, 1.387778780781445700E-016, -0.0000000000000000000 ) ) ;
#104 = DIRECTION ( 'NONE',  ( 1.000000000000000000, 0.0000000000000000000, 0.0000000000000000000 ) ) ;
#105 =( GEOMETRIC_REPRESENTATION_CONTEXT ( 3 ) GLOBAL_UNCERTAINTY_ASSIGNED_CONTEXT ( ( #206 ) ) GLOBAL_UNIT_ASSIGNED_CONTEXT ( ( #38, #202, #34 ) ) REPRESENTATION_CONTEXT ( 'NONE', 'WORKASPACE' ) );
#106 = ORIENTED_EDGE ( 'NONE', *, *, #30, .T. ) ;
#107 = VECTOR ( 'NONE', #119, 1000.000000000000000 ) ;
#108 = PERSON_AND_ORGANIZATION ( #126, #31 ) ;
#109 = ORIENTED_EDGE ( 'NONE', *, *, #30, .F. ) ;
#110 = LINE ( 'NONE', #39, #60 ) ;
#111 = LINE ( 'NONE', #50, #87 ) ;
#112 = ORIENTED_EDGE ( 'NONE', *, *, #205, .T. ) ;
#113 = LINE ( 'NONE', #91, #107 ) ;
#114 = CARTESIAN_POINT ( 'NONE',  ( -12.50000000000000200, 12.50000000000000000, -4.750000000000000000 ) ) ;
#115 = DIRECTION ( 'NONE',  ( 0.0000000000000000000, -0.0000000000000000000, 1.000000000000000000 ) ) ;
#116 = CARTESIAN_POINT ( 'NONE',  ( 12.49999999999999800, -12.49999999999999600, 4.750000000000000000 ) ) ;
#117 = DIRECTION ( 'NONE',  ( 0.0000000000000000000, 0.0000000000000000000, -1.000000000000000000 ) ) ;
#118 = MECHANICAL_CONTEXT ( 'NONE', #74, 'mechanical' ) ;
#119 = DIRECTION ( 'NONE',  ( -0.0000000000000000000, -0.0000000000000000000, -1.000000000000000000 ) ) ;
#120 = ORIENTED_EDGE ( 'NONE', *, *, #80, .T. ) ;
#121 = LOCAL_TIME ( 9, 8, 50.00000000000000000, #215 ) ;
#122 = ADVANCED_FACE ( 'NONE', ( #6 ), #235, .T. ) ;
#123 = CARTESIAN_POINT ( 'NONE',  ( 0.0000000000000000000, 0.0000000000000000000, 0.0000000000000000000 ) ) ;
#124 = EDGE_LOOP ( 'NONE', ( #32, #109, #171, #199 ) ) ;
#125 = ADVANCED_FACE ( 'NONE', ( #219 ), #147, .F. ) ;
#126 = PERSON ( 'UNSPECIFIED', 'UNSPECIFIED', 'UNSPECIFIED', ('UNSPECIFIED'), ('UNSPECIFIED'), ('UNSPECIFIED') ) ;
#127 = ORIENTED_EDGE ( 'NONE', *, *, #227, .F. ) ;
#128 = CC_DESIGN_DATE_AND_TIME_ASSIGNMENT ( #13, #58, ( #12 ) ) ;
#129 = EDGE_CURVE ( 'NONE', #72, #47, #222, .T. ) ;
#130 = CARTESIAN_POINT ( 'NONE',  ( -12.50000000000000200, 12.50000000000000000, 4.750000000000000000 ) ) ;
#131 = LOCAL_TIME ( 9, 8, 50.00000000000000000, #172 ) ;
#132 = CARTESIAN_POINT ( 'NONE',  ( -12.50000000000000200, -12.50000000000000000, 4.750000000000000000 ) ) ;
#133 = AXIS2_PLACEMENT_3D ( 'NONE', #123, #95, #7 ) ;
#134 = PERSON_AND_ORGANIZATION_ROLE ( 'creator' ) ;
#135 = CARTESIAN_POINT ( 'NONE',  ( -12.50000000000000200, -12.50000000000000000, 4.750000000000000000 ) ) ;
#136 = DIRECTION ( 'NONE',  ( -0.0000000000000000000, -1.000000000000000000, -0.0000000000000000000 ) ) ;
#137 = CARTESIAN_POINT ( 'NONE',  ( 12.49999999999999800, -12.49999999999999600, 4.750000000000000000 ) ) ;
#138 = SHAPE_DEFINITION_REPRESENTATION ( #197, #230 ) ;
#139 = DATE_TIME_ROLE ( 'classification_date' ) ;
#140 = DIRECTION ( 'NONE',  ( -0.0000000000000000000, -1.000000000000000000, -0.0000000000000000000 ) ) ;
#141 = VECTOR ( 'NONE', #103, 1000.000000000000000 ) ;
#142 = ORIENTED_EDGE ( 'NONE', *, *, #20, .T. ) ;
#143 = LINE ( 'NONE', #149, #84 ) ;
#144 = LINE ( 'NONE', #90, #45 ) ;
#145 = CLOSED_SHELL ( 'NONE', ( #25, #99, #203, #125, #122, #223 ) ) ;
#146 = DIRECTION ( 'NONE',  ( -1.000000000000000000, 0.0000000000000000000, 0.0000000000000000000 ) ) ;
#147 = PLANE ( 'NONE',  #92 ) ;
#148 = PERSON_AND_ORGANIZATION_ROLE ( 'design_supplier' ) ;
#149 = CARTESIAN_POINT ( 'NONE',  ( 12.49999999999999800, 12.50000000000000400, -4.750000000000000000 ) ) ;
#150 = CARTESIAN_POINT ( 'NONE',  ( 12.49999999999999800, -12.49999999999999600, -4.750000000000000000 ) ) ;
#151 = PERSON_AND_ORGANIZATION_ROLE ( 'classification_officer' ) ;
#152 = DIRECTION ( 'NONE',  ( -0.0000000000000000000, -0.0000000000000000000, -1.000000000000000000 ) ) ;
#153 = VECTOR ( 'NONE', #140, 1000.000000000000000 ) ;
#154 = DATE_AND_TIME ( #159, #131 ) ;
#155 = CALENDAR_DATE ( 2017, 30, 10 ) ;
#156 = LINE ( 'NONE', #195, #189 ) ;
#157 = APPROVAL_DATE_TIME ( #165, #181 ) ;
#158 = AXIS2_PLACEMENT_3D ( 'NONE', #19, #236, #198 ) ;
#159 = CALENDAR_DATE ( 2017, 30, 10 ) ;
#160 = FACE_OUTER_BOUND ( 'NONE', #124, .T. ) ;
#161 = APPROVAL_ROLE ( '' ) ;
#162 = DIRECTION ( 'NONE',  ( -1.000000000000000000, -1.387778780781445700E-016, 0.0000000000000000000 ) ) ;
#163 = ORIENTED_EDGE ( 'NONE', *, *, #231, .T. ) ;
#164 = PLANE ( 'NONE',  #78 ) ;
#165 = DATE_AND_TIME ( #212, #121 ) ;
#166 = DATE_AND_TIME ( #155, #59 ) ;
#167 = LINE ( 'NONE', #132, #71 ) ;
#168 = CARTESIAN_POINT ( 'NONE',  ( -12.50000000000000200, -12.50000000000000000, 4.750000000000000000 ) ) ;
#169 = APPROVAL ( #93, 'UNSPECIFIED' ) ;
#170 = CARTESIAN_POINT ( 'NONE',  ( 0.0000000000000000000, 0.0000000000000000000, -4.750000000000000000 ) ) ;
#171 = ORIENTED_EDGE ( 'NONE', *, *, #129, .F. ) ;
#172 = COORDINATED_UNIVERSAL_TIME_OFFSET ( 5, 0, .BEHIND. ) ;
#173 = DIRECTION ( 'NONE',  ( -0.0000000000000000000, -0.0000000000000000000, -1.000000000000000000 ) ) ;
#174 = DIRECTION ( 'NONE',  ( 0.0000000000000000000, 1.000000000000000000, 0.0000000000000000000 ) ) ;
#175 = APPLICATION_PROTOCOL_DEFINITION ( 'international standard', 'config_control_design', 1994, #74 ) ;
#176 = DIRECTION ( 'NONE',  ( 1.000000000000000000, 1.387778780781445700E-016, 0.0000000000000000000 ) ) ;
#177 = PERSON_AND_ORGANIZATION ( #126, #31 ) ;
#178 = APPROVAL_STATUS ( 'not_yet_approved' ) ;
#179 = EDGE_LOOP ( 'NONE', ( #163, #15, #27, #120 ) ) ;
#180 = CC_DESIGN_SECURITY_CLASSIFICATION ( #73, ( #225 ) ) ;
#181 = APPROVAL ( #221, 'UNSPECIFIED' ) ;
#182 = APPROVAL_DATE_TIME ( #226, #23 ) ;
#183 = EDGE_LOOP ( 'NONE', ( #127, #29, #11, #56 ) ) ;
#184 = ORIENTED_EDGE ( 'NONE', *, *, #10, .T. ) ;
#185 = EDGE_CURVE ( 'NONE', #72, #85, #110, .T. ) ;
#186 = PERSON_AND_ORGANIZATION ( #126, #31 ) ;
#187 = ORIENTED_EDGE ( 'NONE', *, *, #185, .F. ) ;
#188 = DIRECTION ( 'NONE',  ( -1.000000000000000000, -1.387778780781445700E-016, 0.0000000000000000000 ) ) ;
#189 = VECTOR ( 'NONE', #94, 1000.000000000000000 ) ;
#190 = PLANE ( 'NONE',  #41 ) ;
#191 = CARTESIAN_POINT ( 'NONE',  ( 12.49999999999999800, -12.49999999999999600, -4.750000000000000000 ) ) ;
#192 = MANIFOLD_SOLID_BREP ( 'Boss-Extrude1', #145 ) ;
#193 = PERSON_AND_ORGANIZATION_ROLE ( 'design_owner' ) ;
#194 = ORIENTED_EDGE ( 'NONE', *, *, #129, .T. ) ;
#195 = CARTESIAN_POINT ( 'NONE',  ( 12.49999999999999800, 12.50000000000000400, 4.750000000000000000 ) ) ;
#196 = COORDINATED_UNIVERSAL_TIME_OFFSET ( 5, 0, .BEHIND. ) ;
#197 = PRODUCT_DEFINITION_SHAPE ( 'NONE', 'NONE',  #12 ) ;
#198 = DIRECTION ( 'NONE',  ( -1.000000000000000000, -1.387778780781445700E-016, 0.0000000000000000000 ) ) ;
#199 = ORIENTED_EDGE ( 'NONE', *, *, #185, .T. ) ;
#200 = PERSON_AND_ORGANIZATION ( #126, #31 ) ;
#201 = CALENDAR_DATE ( 2017, 30, 10 ) ;
#202 =( NAMED_UNIT ( * ) PLANE_ANGLE_UNIT ( ) SI_UNIT ( $, .RADIAN. ) );
#203 = ADVANCED_FACE ( 'NONE', ( #48 ), #190, .F. ) ;
#204 = VERTEX_POINT ( 'NONE', #40 ) ;
#205 = EDGE_CURVE ( 'NONE', #102, #237, #156, .T. ) ;
#206 = UNCERTAINTY_MEASURE_WITH_UNIT (LENGTH_MEASURE( 1.000000000000000100E-005 ), #38, 'distance_accuracy_value', 'NONE');
#207 = LINE ( 'NONE', #214, #153 ) ;
#208 = LOCAL_TIME ( 9, 8, 50.00000000000000000, #33 ) ;
#209 = APPROVAL_PERSON_ORGANIZATION ( #22, #181, #161 ) ;
#210 = AXIS2_PLACEMENT_3D ( 'NONE', #168, #104, #117 ) ;
#211 = LINE ( 'NONE', #150, #3 ) ;
#212 = CALENDAR_DATE ( 2017, 30, 10 ) ;
#213 = CARTESIAN_POINT ( 'NONE',  ( 12.49999999999999800, -12.49999999999999600, 4.750000000000000000 ) ) ;
#214 = CARTESIAN_POINT ( 'NONE',  ( -12.50000000000000200, -12.50000000000000000, -4.750000000000000000 ) ) ;
#215 = COORDINATED_UNIVERSAL_TIME_OFFSET ( 5, 0, .BEHIND. ) ;
#216 = APPROVAL_ROLE ( '' ) ;
#217 = CARTESIAN_POINT ( 'NONE',  ( 12.49999999999999800, 12.50000000000000400, 4.750000000000000000 ) ) ;
#218 = EDGE_CURVE ( 'NONE', #237, #85, #143, .T. ) ;
#219 = FACE_OUTER_BOUND ( 'NONE', #220, .T. ) ;
#220 = EDGE_LOOP ( 'NONE', ( #86, #187, #57, #112 ) ) ;
#221 = APPROVAL_STATUS ( 'not_yet_approved' ) ;
#222 = LINE ( 'NONE', #135, #64 ) ;
#223 = ADVANCED_FACE ( 'NONE', ( #49 ), #164, .F. ) ;
#224 = LINE ( 'NONE', #213, #141 ) ;
#225 = PRODUCT_DEFINITION_FORMATION_WITH_SPECIFIED_SOURCE ( 'ANY', '', #44, .NOT_KNOWN. ) ;
#226 = DATE_AND_TIME ( #42, #228 ) ;
#227 = EDGE_CURVE ( 'NONE', #85, #9, #207, .T. ) ;
#228 = LOCAL_TIME ( 9, 8, 50.00000000000000000, #43 ) ;
#229 = PLANE ( 'NONE',  #210 ) ;
#230 = ADVANCED_BREP_SHAPE_REPRESENTATION ( 'Web Model 64402MX_41019', ( #192, #133 ), #105 ) ;
#231 = EDGE_CURVE ( 'NONE', #204, #237, #211, .T. ) ;
#232 = CC_DESIGN_PERSON_AND_ORGANIZATION_ASSIGNMENT ( #186, #148, ( #225 ) ) ;
#233 = PERSON_AND_ORGANIZATION ( #126, #31 ) ;
#234 = DIRECTION ( 'NONE',  ( 1.000000000000000000, 1.387778780781445700E-016, -0.0000000000000000000 ) ) ;
#235 = PLANE ( 'NONE',  #28 ) ;
#236 = DIRECTION ( 'NONE',  ( -1.387778780781445700E-016, 1.000000000000000000, 0.0000000000000000000 ) ) ;
#237 = VERTEX_POINT ( 'NONE', #89 ) ;
ENDSEC;
END-ISO-10303-21;
