ISO-10303-21;
HEADER;
FILE_DESCRIPTION (( 'STEP AP203' ),
    '1' );
FILE_NAME ('Web Model 83353.STEP',
    '2017-02-01T15:18:48',
    ( '' ),
    ( '' ),
    'SwSTEP 2.0',
    'SolidWorks 2016',
    '' );
FILE_SCHEMA (( 'CONFIG_CONTROL_DESIGN' ));
ENDSEC;

DATA;
#1 = CARTESIAN_POINT ( 'NONE',  ( 0.0000000000000000000, 0.0000000000000000000, 0.0000000000000000000 ) ) ;
#2 = VERTEX_POINT ( 'NONE', #6 ) ;
#3 = CARTESIAN_POINT ( 'NONE',  ( 0.0000000000000000000, 0.0000000000000000000, 6.250000000000000000 ) ) ;
#4 = DIRECTION ( 'NONE',  ( 0.0000000000000000000, 0.0000000000000000000, -1.000000000000000000 ) ) ;
#5 = CC_DESIGN_DATE_AND_TIME_ASSIGNMENT ( #45, #22, ( #72 ) ) ;
#6 = CARTESIAN_POINT ( 'NONE',  ( 1.000000000000000000, 0.0000000000000000000, 6.250000000000000000 ) ) ;
#7 = CALENDAR_DATE ( 2017, 1, 2 ) ;
#8 = LINE ( 'NONE', #86, #73 ) ;
#9 = ADVANCED_BREP_SHAPE_REPRESENTATION ( 'Web Model 83353', ( #77, #150 ), #61 ) ;
#10 = DATE_AND_TIME ( #75, #111 ) ;
#11 = PERSON_AND_ORGANIZATION ( #102, #101 ) ;
#12 = PERSON_AND_ORGANIZATION_ROLE ( 'design_owner' ) ;
#13 = DIRECTION ( 'NONE',  ( 1.000000000000000000, 0.0000000000000000000, 0.0000000000000000000 ) ) ;
#14 = ORIENTED_EDGE ( 'NONE', *, *, #28, .F. ) ;
#15 = ORIENTED_EDGE ( 'NONE', *, *, #167, .F. ) ;
#16 = APPROVAL_DATE_TIME ( #105, #134 ) ;
#17 = DIRECTION ( 'NONE',  ( 1.000000000000000000, 0.0000000000000000000, 0.0000000000000000000 ) ) ;
#18 = PERSON_AND_ORGANIZATION ( #102, #101 ) ;
#19 = EDGE_LOOP ( 'NONE', ( #117, #35, #109, #14 ) ) ;
#20 = ORIENTED_EDGE ( 'NONE', *, *, #127, .T. ) ;
#21 = CARTESIAN_POINT ( 'NONE',  ( 0.0000000000000000000, 0.0000000000000000000, 0.0000000000000000000 ) ) ;
#22 = DATE_TIME_ROLE ( 'creation_date' ) ;
#23 = DIRECTION ( 'NONE',  ( 0.0000000000000000000, 0.0000000000000000000, -1.000000000000000000 ) ) ;
#24 = APPLICATION_PROTOCOL_DEFINITION ( 'international standard', 'config_control_design', 1994, #79 ) ;
#25 = APPROVAL_PERSON_ORGANIZATION ( #145, #128, #39 ) ;
#26 = SECURITY_CLASSIFICATION_LEVEL ( 'unclassified' ) ;
#27 = ADVANCED_FACE ( 'NONE', ( #106 ), #143, .T. ) ;
#28 = EDGE_CURVE ( 'NONE', #2, #36, #99, .T. ) ;
#29 = CARTESIAN_POINT ( 'NONE',  ( 1.000000000000000000, 0.0000000000000000000, 0.0000000000000000000 ) ) ;
#30 = DIRECTION ( 'NONE',  ( 0.0000000000000000000, 0.0000000000000000000, -1.000000000000000000 ) ) ;
#31 = APPROVAL_DATE_TIME ( #10, #107 ) ;
#32 = AXIS2_PLACEMENT_3D ( 'NONE', #21, #13, #23 ) ;
#33 = CC_DESIGN_DATE_AND_TIME_ASSIGNMENT ( #140, #119, ( #159 ) ) ;
#34 = COORDINATED_UNIVERSAL_TIME_OFFSET ( 5, 0, .BEHIND. ) ;
#35 = ORIENTED_EDGE ( 'NONE', *, *, #125, .T. ) ;
#36 = VERTEX_POINT ( 'NONE', #3 ) ;
#37 = DESIGN_CONTEXT ( 'detailed design', #79, 'design' ) ;
#38 =( NAMED_UNIT ( * ) SI_UNIT ( $, .STERADIAN. ) SOLID_ANGLE_UNIT ( ) );
#39 = APPROVAL_ROLE ( '' ) ;
#40 = APPROVAL_ROLE ( '' ) ;
#41 = FACE_OUTER_BOUND ( 'NONE', #120, .T. ) ;
#42 = CARTESIAN_POINT ( 'NONE',  ( 1.000000000000000000, 0.0000000000000000000, 0.0000000000000000000 ) ) ;
#43 = CC_DESIGN_PERSON_AND_ORGANIZATION_ASSIGNMENT ( #18, #12, ( #166 ) ) ;
#44 = PLANE ( 'NONE',  #173 ) ;
#45 = DATE_AND_TIME ( #7, #110 ) ;
#46 = PERSON_AND_ORGANIZATION ( #102, #101 ) ;
#47 = EDGE_LOOP ( 'NONE', ( #58, #92, #160, #104 ) ) ;
#48 = MECHANICAL_CONTEXT ( 'NONE', #82, 'mechanical' ) ;
#49 = CARTESIAN_POINT ( 'NONE',  ( 0.0000000000000000000, 0.0000000000000000000, 0.0000000000000000000 ) ) ;
#50 = CALENDAR_DATE ( 2017, 1, 2 ) ;
#51 = PERSON_AND_ORGANIZATION_ROLE ( 'creator' ) ;
#52 = PERSON_AND_ORGANIZATION_ROLE ( 'design_supplier' ) ;
#53 = DIRECTION ( 'NONE',  ( 0.0000000000000000000, 0.0000000000000000000, 1.000000000000000000 ) ) ;
#54 = CARTESIAN_POINT ( 'NONE',  ( 1.000000000000000000, 0.0000000000000000000, 0.0000000000000000000 ) ) ;
#55 = AXIS2_PLACEMENT_3D ( 'NONE', #1, #136, #30 ) ;
#56 = ORIENTED_EDGE ( 'NONE', *, *, #80, .F. ) ;
#57 = PERSON_AND_ORGANIZATION ( #102, #101 ) ;
#58 = ORIENTED_EDGE ( 'NONE', *, *, #125, .F. ) ;
#59 = APPROVAL_STATUS ( 'not_yet_approved' ) ;
#60 = CIRCLE ( 'NONE', #55, 6.250000000000000000 ) ;
#61 =( GEOMETRIC_REPRESENTATION_CONTEXT ( 3 ) GLOBAL_UNCERTAINTY_ASSIGNED_CONTEXT ( ( #131 ) ) GLOBAL_UNIT_ASSIGNED_CONTEXT ( ( #144, #97, #38 ) ) REPRESENTATION_CONTEXT ( 'NONE', 'WORKASPACE' ) );
#62 = COORDINATED_UNIVERSAL_TIME_OFFSET ( 5, 0, .BEHIND. ) ;
#63 = CIRCLE ( 'NONE', #164, 6.250000000000000000 ) ;
#64 = FACE_OUTER_BOUND ( 'NONE', #112, .T. ) ;
#65 = DIRECTION ( 'NONE',  ( 0.0000000000000000000, 0.0000000000000000000, 1.000000000000000000 ) ) ;
#66 = AXIS2_PLACEMENT_3D ( 'NONE', #54, #81, #161 ) ;
#67 = DIRECTION ( 'NONE',  ( 1.000000000000000000, 0.0000000000000000000, 0.0000000000000000000 ) ) ;
#68 = SHAPE_DEFINITION_REPRESENTATION ( #94, #9 ) ;
#69 = CALENDAR_DATE ( 2017, 1, 2 ) ;
#70 = CIRCLE ( 'NONE', #32, 6.250000000000000000 ) ;
#71 = AXIS2_PLACEMENT_3D ( 'NONE', #42, #88, #53 ) ;
#72 = PRODUCT_DEFINITION ( 'UNKNOWN', '', #124, #37 ) ;
#73 = VECTOR ( 'NONE', #98, 1000.000000000000000 ) ;
#74 = AXIS2_PLACEMENT_3D ( 'NONE', #78, #96, #174 ) ;
#75 = CALENDAR_DATE ( 2017, 1, 2 ) ;
#76 = COORDINATED_UNIVERSAL_TIME_OFFSET ( 5, 0, .BEHIND. ) ;
#77 = MANIFOLD_SOLID_BREP ( 'Extrude1', #139 ) ;
#78 = CARTESIAN_POINT ( 'NONE',  ( 1.000000000000000000, 0.0000000000000000000, 0.0000000000000000000 ) ) ;
#79 = APPLICATION_CONTEXT ( 'configuration controlled 3d designs of mechanical parts and assemblies' ) ;
#80 = EDGE_CURVE ( 'NONE', #36, #123, #60, .T. ) ;
#81 = DIRECTION ( 'NONE',  ( 1.000000000000000000, 0.0000000000000000000, 0.0000000000000000000 ) ) ;
#82 = APPLICATION_CONTEXT ( 'configuration controlled 3d designs of mechanical parts and assemblies' ) ;
#83 = PERSON_AND_ORGANIZATION_ROLE ( 'classification_officer' ) ;
#84 = VERTEX_POINT ( 'NONE', #108 ) ;
#85 = ADVANCED_FACE ( 'NONE', ( #41 ), #44, .T. ) ;
#86 = CARTESIAN_POINT ( 'NONE',  ( 1.000000000000000000, 7.654042494670957600E-016, -6.250000000000000000 ) ) ;
#87 = LOCAL_TIME ( 10, 18, 48.00000000000000000, #113 ) ;
#88 = DIRECTION ( 'NONE',  ( -1.000000000000000000, -0.0000000000000000000, -0.0000000000000000000 ) ) ;
#89 = DIRECTION ( 'NONE',  ( -1.000000000000000000, -0.0000000000000000000, -0.0000000000000000000 ) ) ;
#90 = APPROVAL_DATE_TIME ( #156, #128 ) ;
#91 = CC_DESIGN_SECURITY_CLASSIFICATION ( #159, ( #124 ) ) ;
#92 = ORIENTED_EDGE ( 'NONE', *, *, #122, .F. ) ;
#93 = PERSON_AND_ORGANIZATION ( #102, #101 ) ;
#94 = PRODUCT_DEFINITION_SHAPE ( 'NONE', 'NONE',  #72 ) ;
#95 = PERSON_AND_ORGANIZATION_ROLE ( 'creator' ) ;
#96 = DIRECTION ( 'NONE',  ( -1.000000000000000000, -0.0000000000000000000, -0.0000000000000000000 ) ) ;
#97 =( NAMED_UNIT ( * ) PLANE_ANGLE_UNIT ( ) SI_UNIT ( $, .RADIAN. ) );
#98 = DIRECTION ( 'NONE',  ( -1.000000000000000000, -0.0000000000000000000, -0.0000000000000000000 ) ) ;
#99 = LINE ( 'NONE', #147, #146 ) ;
#100 = CC_DESIGN_PERSON_AND_ORGANIZATION_ASSIGNMENT ( #93, #52, ( #124 ) ) ;
#101 = ORGANIZATION ( 'UNSPECIFIED', 'UNSPECIFIED', '' ) ;
#102 = PERSON ( 'UNSPECIFIED', 'UNSPECIFIED', 'UNSPECIFIED', ('UNSPECIFIED'), ('UNSPECIFIED'), ('UNSPECIFIED') ) ;
#103 = CARTESIAN_POINT ( 'NONE',  ( 1.000000000000000000, 0.0000000000000000000, 0.0000000000000000000 ) ) ;
#104 = ORIENTED_EDGE ( 'NONE', *, *, #80, .T. ) ;
#105 = DATE_AND_TIME ( #165, #118 ) ;
#106 = FACE_OUTER_BOUND ( 'NONE', #19, .T. ) ;
#107 = APPROVAL ( #59, 'UNSPECIFIED' ) ;
#108 = CARTESIAN_POINT ( 'NONE',  ( 1.000000000000000000, 7.654042494670957600E-016, -6.250000000000000000 ) ) ;
#109 = ORIENTED_EDGE ( 'NONE', *, *, #167, .T. ) ;
#110 = LOCAL_TIME ( 10, 18, 48.00000000000000000, #62 ) ;
#111 = LOCAL_TIME ( 10, 18, 48.00000000000000000, #137 ) ;
#112 = EDGE_LOOP ( 'NONE', ( #56, #15 ) ) ;
#113 = COORDINATED_UNIVERSAL_TIME_OFFSET ( 5, 0, .BEHIND. ) ;
#114 = APPROVAL_STATUS ( 'not_yet_approved' ) ;
#115 = APPLICATION_PROTOCOL_DEFINITION ( 'international standard', 'config_control_design', 1994, #82 ) ;
#116 = CC_DESIGN_APPROVAL ( #107, ( #159 ) ) ;
#117 = ORIENTED_EDGE ( 'NONE', *, *, #127, .F. ) ;
#118 = LOCAL_TIME ( 10, 18, 48.00000000000000000, #34 ) ;
#119 = DATE_TIME_ROLE ( 'classification_date' ) ;
#120 = EDGE_LOOP ( 'NONE', ( #155, #20 ) ) ;
#121 = CARTESIAN_POINT ( 'NONE',  ( 0.0000000000000000000, 7.654042494670957600E-016, -6.250000000000000000 ) ) ;
#122 = EDGE_CURVE ( 'NONE', #2, #84, #63, .T. ) ;
#123 = VERTEX_POINT ( 'NONE', #121 ) ;
#124 = PRODUCT_DEFINITION_FORMATION_WITH_SPECIFIED_SOURCE ( 'ANY', '', #166, .NOT_KNOWN. ) ;
#125 = EDGE_CURVE ( 'NONE', #84, #123, #8, .T. ) ;
#126 = APPROVAL_STATUS ( 'not_yet_approved' ) ;
#127 = EDGE_CURVE ( 'NONE', #84, #2, #132, .T. ) ;
#128 = APPROVAL ( #114, 'UNSPECIFIED' ) ;
#129 = PERSON_AND_ORGANIZATION ( #102, #101 ) ;
#130 = DIRECTION ( 'NONE',  ( 1.000000000000000000, 0.0000000000000000000, 0.0000000000000000000 ) ) ;
#131 = UNCERTAINTY_MEASURE_WITH_UNIT (LENGTH_MEASURE( 1.000000000000000100E-005 ), #144, 'distance_accuracy_value', 'NONE');
#132 = CIRCLE ( 'NONE', #66, 6.250000000000000000 ) ;
#133 = ADVANCED_FACE ( 'NONE', ( #64 ), #163, .F. ) ;
#134 = APPROVAL ( #126, 'UNSPECIFIED' ) ;
#135 = CYLINDRICAL_SURFACE ( 'NONE', #74, 6.250000000000000000 ) ;
#136 = DIRECTION ( 'NONE',  ( 1.000000000000000000, 0.0000000000000000000, 0.0000000000000000000 ) ) ;
#137 = COORDINATED_UNIVERSAL_TIME_OFFSET ( 5, 0, .BEHIND. ) ;
#138 = CC_DESIGN_APPROVAL ( #128, ( #72 ) ) ;
#139 = CLOSED_SHELL ( 'NONE', ( #27, #148, #85, #133 ) ) ;
#140 = DATE_AND_TIME ( #69, #87 ) ;
#141 = APPROVAL_ROLE ( '' ) ;
#142 = LOCAL_TIME ( 10, 18, 48.00000000000000000, #76 ) ;
#143 = CYLINDRICAL_SURFACE ( 'NONE', #71, 6.250000000000000000 ) ;
#144 =( LENGTH_UNIT ( ) NAMED_UNIT ( * ) SI_UNIT ( .MILLI., .METRE. ) );
#145 = PERSON_AND_ORGANIZATION ( #102, #101 ) ;
#146 = VECTOR ( 'NONE', #89, 1000.000000000000000 ) ;
#147 = CARTESIAN_POINT ( 'NONE',  ( 1.000000000000000000, 0.0000000000000000000, 6.250000000000000000 ) ) ;
#148 = ADVANCED_FACE ( 'NONE', ( #162 ), #135, .T. ) ;
#149 = DIRECTION ( 'NONE',  ( 1.000000000000000000, 0.0000000000000000000, 0.0000000000000000000 ) ) ;
#150 = AXIS2_PLACEMENT_3D ( 'NONE', #158, #65, #130 ) ;
#151 = CC_DESIGN_PERSON_AND_ORGANIZATION_ASSIGNMENT ( #153, #51, ( #124 ) ) ;
#152 = DIRECTION ( 'NONE',  ( 0.0000000000000000000, 0.0000000000000000000, -1.000000000000000000 ) ) ;
#153 = PERSON_AND_ORGANIZATION ( #102, #101 ) ;
#154 = CC_DESIGN_APPROVAL ( #134, ( #124 ) ) ;
#155 = ORIENTED_EDGE ( 'NONE', *, *, #122, .T. ) ;
#156 = DATE_AND_TIME ( #50, #142 ) ;
#157 = DIRECTION ( 'NONE',  ( 0.0000000000000000000, 0.0000000000000000000, -1.000000000000000000 ) ) ;
#158 = CARTESIAN_POINT ( 'NONE',  ( 0.0000000000000000000, 0.0000000000000000000, 0.0000000000000000000 ) ) ;
#159 = SECURITY_CLASSIFICATION ( '', '', #26 ) ;
#160 = ORIENTED_EDGE ( 'NONE', *, *, #28, .T. ) ;
#161 = DIRECTION ( 'NONE',  ( 0.0000000000000000000, 0.0000000000000000000, -1.000000000000000000 ) ) ;
#162 = FACE_OUTER_BOUND ( 'NONE', #47, .T. ) ;
#163 = PLANE ( 'NONE',  #171 ) ;
#164 = AXIS2_PLACEMENT_3D ( 'NONE', #103, #17, #4 ) ;
#165 = CALENDAR_DATE ( 2017, 1, 2 ) ;
#166 = PRODUCT ( 'Web Model 83353', 'Web Model 83353', '', ( #48 ) ) ;
#167 = EDGE_CURVE ( 'NONE', #123, #36, #70, .T. ) ;
#168 = PRODUCT_RELATED_PRODUCT_CATEGORY ( 'detail', '', ( #166 ) ) ;
#169 = APPROVAL_PERSON_ORGANIZATION ( #57, #134, #141 ) ;
#170 = CC_DESIGN_PERSON_AND_ORGANIZATION_ASSIGNMENT ( #46, #95, ( #72 ) ) ;
#171 = AXIS2_PLACEMENT_3D ( 'NONE', #49, #67, #157 ) ;
#172 = CC_DESIGN_PERSON_AND_ORGANIZATION_ASSIGNMENT ( #129, #83, ( #159 ) ) ;
#173 = AXIS2_PLACEMENT_3D ( 'NONE', #29, #149, #152 ) ;
#174 = DIRECTION ( 'NONE',  ( 0.0000000000000000000, 0.0000000000000000000, 1.000000000000000000 ) ) ;
#175 = APPROVAL_PERSON_ORGANIZATION ( #11, #107, #40 ) ;
ENDSEC;
END-ISO-10303-21;
