ISO-10303-21;
HEADER;
FILE_DESCRIPTION (( 'STEP AP203' ),
    '1' );
FILE_NAME ('Web Model 45308_45808.step',
    '2019-01-07T15:46:59',
    ( '' ),
    ( '' ),
    'SwSTEP 2.0',
    'SolidWorks 2016',
    '' );
FILE_SCHEMA (( 'CONFIG_CONTROL_DESIGN' ));
ENDSEC;

DATA;
#1 = DIRECTION ( 'NONE',  ( 0.0000000000000000000, 0.0000000000000000000, 1.000000000000000000 ) ) ;
#2 = CIRCLE ( 'NONE', #113, 5.000000000000000000 ) ;
#3 = EDGE_LOOP ( 'NONE', ( #157, #68, #120, #173 ) ) ;
#4 = CARTESIAN_POINT ( 'NONE',  ( 0.0000000000000000000, 0.0000000000000000000, -0.5000000000000000000 ) ) ;
#5 = DIRECTION ( 'NONE',  ( -1.000000000000000000, 0.0000000000000000000, 0.0000000000000000000 ) ) ;
#6 = PRODUCT_RELATED_PRODUCT_CATEGORY ( 'detail', '', ( #123 ) ) ;
#7 = ORIENTED_EDGE ( 'NONE', *, *, #105, .T. ) ;
#8 = DIRECTION ( 'NONE',  ( -0.0000000000000000000, -0.0000000000000000000, -1.000000000000000000 ) ) ;
#9 = PERSON_AND_ORGANIZATION ( #75, #165 ) ;
#10 = MECHANICAL_CONTEXT ( 'NONE', #33, 'mechanical' ) ;
#11 = CALENDAR_DATE ( 2019, 7, 1 ) ;
#12 = APPROVAL_STATUS ( 'not_yet_approved' ) ;
#13 = PERSON_AND_ORGANIZATION_ROLE ( 'creator' ) ;
#14 = DIRECTION ( 'NONE',  ( 0.0000000000000000000, 0.0000000000000000000, 1.000000000000000000 ) ) ;
#15 = DATE_AND_TIME ( #24, #76 ) ;
#16 = CALENDAR_DATE ( 2019, 7, 1 ) ;
#17 = EDGE_CURVE ( 'NONE', #115, #108, #40, .T. ) ;
#18 = CARTESIAN_POINT ( 'NONE',  ( 0.0000000000000000000, 0.0000000000000000000, 0.0000000000000000000 ) ) ;
#19 = AXIS2_PLACEMENT_3D ( 'NONE', #25, #14, #124 ) ;
#20 = PERSON_AND_ORGANIZATION ( #75, #165 ) ;
#21 = LOCAL_TIME ( 10, 46, 59.00000000000000000, #130 ) ;
#22 = APPROVAL_ROLE ( '' ) ;
#23 = CC_DESIGN_PERSON_AND_ORGANIZATION_ASSIGNMENT ( #54, #175, ( #123 ) ) ;
#24 = CALENDAR_DATE ( 2019, 7, 1 ) ;
#25 = CARTESIAN_POINT ( 'NONE',  ( 0.0000000000000000000, 0.0000000000000000000, 0.5000000000000000000 ) ) ;
#26 = AXIS2_PLACEMENT_3D ( 'NONE', #79, #148, #104 ) ;
#27 = PRODUCT_DEFINITION_SHAPE ( 'NONE', 'NONE',  #44 ) ;
#28 = EDGE_LOOP ( 'NONE', ( #132, #101 ) ) ;
#29 = CARTESIAN_POINT ( 'NONE',  ( 5.000000000000000000, 6.123233995736766300E-016, -0.5000000000000000000 ) ) ;
#30 = CARTESIAN_POINT ( 'NONE',  ( 0.0000000000000000000, 0.0000000000000000000, 0.5000000000000000000 ) ) ;
#31 = AXIS2_PLACEMENT_3D ( 'NONE', #4, #112, #129 ) ;
#32 = EDGE_LOOP ( 'NONE', ( #70, #126 ) ) ;
#33 = APPLICATION_CONTEXT ( 'configuration controlled 3d designs of mechanical parts and assemblies' ) ;
#34 = PERSON_AND_ORGANIZATION ( #75, #165 ) ;
#35 = CC_DESIGN_SECURITY_CLASSIFICATION ( #163, ( #51 ) ) ;
#36 = DATE_TIME_ROLE ( 'classification_date' ) ;
#37 = PERSON_AND_ORGANIZATION ( #75, #165 ) ;
#38 = APPROVAL_DATE_TIME ( #83, #57 ) ;
#39 = SHAPE_DEFINITION_REPRESENTATION ( #27, #74 ) ;
#40 = CIRCLE ( 'NONE', #19, 5.000000000000000000 ) ;
#41 = DIRECTION ( 'NONE',  ( 1.000000000000000000, 0.0000000000000000000, -0.0000000000000000000 ) ) ;
#42 = ORIENTED_EDGE ( 'NONE', *, *, #17, .F. ) ;
#43 = PERSON_AND_ORGANIZATION ( #75, #165 ) ;
#44 = PRODUCT_DEFINITION ( 'UNKNOWN', '', #51, #82 ) ;
#45 = CC_DESIGN_PERSON_AND_ORGANIZATION_ASSIGNMENT ( #37, #142, ( #44 ) ) ;
#46 = VECTOR ( 'NONE', #8, 1000.000000000000000 ) ;
#47 = DATE_AND_TIME ( #67, #160 ) ;
#48 = FACE_OUTER_BOUND ( 'NONE', #3, .T. ) ;
#49 = MANIFOLD_SOLID_BREP ( 'Boss-Extrude1', #116 ) ;
#50 = CC_DESIGN_APPROVAL ( #57, ( #44 ) ) ;
#51 = PRODUCT_DEFINITION_FORMATION_WITH_SPECIFIED_SOURCE ( 'ANY', '', #123, .NOT_KNOWN. ) ;
#52 = ADVANCED_FACE ( 'NONE', ( #128 ), #127, .F. ) ;
#53 = EDGE_CURVE ( 'NONE', #108, #115, #2, .T. ) ;
#54 = PERSON_AND_ORGANIZATION ( #75, #165 ) ;
#55 = UNCERTAINTY_MEASURE_WITH_UNIT (LENGTH_MEASURE( 1.000000000000000100E-005 ), #167, 'distance_accuracy_value', 'NONE');
#56 = ORIENTED_EDGE ( 'NONE', *, *, #92, .F. ) ;
#57 = APPROVAL ( #107, 'UNSPECIFIED' ) ;
#58 = APPROVAL ( #12, 'UNSPECIFIED' ) ;
#59 = LINE ( 'NONE', #170, #155 ) ;
#60 = PERSON_AND_ORGANIZATION_ROLE ( 'design_supplier' ) ;
#61 = EDGE_CURVE ( 'NONE', #84, #65, #146, .T. ) ;
#62 = DATE_AND_TIME ( #11, #103 ) ;
#63 = DIRECTION ( 'NONE',  ( 0.0000000000000000000, 0.0000000000000000000, 1.000000000000000000 ) ) ;
#64 = ADVANCED_FACE ( 'NONE', ( #140 ), #174, .T. ) ;
#65 = VERTEX_POINT ( 'NONE', #81 ) ;
#66 = DIRECTION ( 'NONE',  ( 0.0000000000000000000, 0.0000000000000000000, 1.000000000000000000 ) ) ;
#67 = CALENDAR_DATE ( 2019, 7, 1 ) ;
#68 = ORIENTED_EDGE ( 'NONE', *, *, #92, .T. ) ;
#69 = CALENDAR_DATE ( 2019, 7, 1 ) ;
#70 = ORIENTED_EDGE ( 'NONE', *, *, #17, .T. ) ;
#71 = APPROVAL_STATUS ( 'not_yet_approved' ) ;
#72 = APPROVAL_DATE_TIME ( #15, #94 ) ;
#73 = COORDINATED_UNIVERSAL_TIME_OFFSET ( 5, 0, .BEHIND. ) ;
#74 = ADVANCED_BREP_SHAPE_REPRESENTATION ( 'Web Model 45308_45808', ( #49, #97 ), #144 ) ;
#75 = PERSON ( 'UNSPECIFIED', 'UNSPECIFIED', 'UNSPECIFIED', ('UNSPECIFIED'), ('UNSPECIFIED'), ('UNSPECIFIED') ) ;
#76 = LOCAL_TIME ( 10, 46, 59.00000000000000000, #158 ) ;
#77 = CARTESIAN_POINT ( 'NONE',  ( 0.0000000000000000000, 0.0000000000000000000, 0.5000000000000000000 ) ) ;
#78 = COORDINATED_UNIVERSAL_TIME_OFFSET ( 5, 0, .BEHIND. ) ;
#79 = CARTESIAN_POINT ( 'NONE',  ( 0.0000000000000000000, 0.0000000000000000000, 0.5000000000000000000 ) ) ;
#80 = CC_DESIGN_DATE_AND_TIME_ASSIGNMENT ( #62, #36, ( #163 ) ) ;
#81 = CARTESIAN_POINT ( 'NONE',  ( -5.000000000000000000, 0.0000000000000000000, -0.5000000000000000000 ) ) ;
#82 = DESIGN_CONTEXT ( 'detailed design', #93, 'design' ) ;
#83 = DATE_AND_TIME ( #69, #141 ) ;
#84 = VERTEX_POINT ( 'NONE', #29 ) ;
#85 = DIRECTION ( 'NONE',  ( 1.000000000000000000, 0.0000000000000000000, 0.0000000000000000000 ) ) ;
#86 = EDGE_LOOP ( 'NONE', ( #56, #42, #7, #138 ) ) ;
#87 = DIRECTION ( 'NONE',  ( -0.0000000000000000000, -0.0000000000000000000, -1.000000000000000000 ) ) ;
#88 =( NAMED_UNIT ( * ) SI_UNIT ( $, .STERADIAN. ) SOLID_ANGLE_UNIT ( ) );
#89 = CC_DESIGN_APPROVAL ( #58, ( #51 ) ) ;
#90 = CC_DESIGN_APPROVAL ( #94, ( #163 ) ) ;
#91 = DATE_TIME_ROLE ( 'creation_date' ) ;
#92 = EDGE_CURVE ( 'NONE', #108, #84, #59, .T. ) ;
#93 = APPLICATION_CONTEXT ( 'configuration controlled 3d designs of mechanical parts and assemblies' ) ;
#94 = APPROVAL ( #71, 'UNSPECIFIED' ) ;
#95 = EDGE_CURVE ( 'NONE', #65, #84, #169, .T. ) ;
#96 = APPROVAL_PERSON_ORGANIZATION ( #106, #58, #139 ) ;
#97 = AXIS2_PLACEMENT_3D ( 'NONE', #18, #114, #137 ) ;
#98 = DIRECTION ( 'NONE',  ( -0.0000000000000000000, -0.0000000000000000000, -1.000000000000000000 ) ) ;
#99 = LINE ( 'NONE', #102, #46 ) ;
#100 = AXIS2_PLACEMENT_3D ( 'NONE', #164, #1, #41 ) ;
#101 = ORIENTED_EDGE ( 'NONE', *, *, #61, .F. ) ;
#102 = CARTESIAN_POINT ( 'NONE',  ( -5.000000000000000000, 0.0000000000000000000, 0.5000000000000000000 ) ) ;
#103 = LOCAL_TIME ( 10, 46, 59.00000000000000000, #110 ) ;
#104 = DIRECTION ( 'NONE',  ( 1.000000000000000000, 0.0000000000000000000, -0.0000000000000000000 ) ) ;
#105 = EDGE_CURVE ( 'NONE', #115, #65, #99, .T. ) ;
#106 = PERSON_AND_ORGANIZATION ( #75, #165 ) ;
#107 = APPROVAL_STATUS ( 'not_yet_approved' ) ;
#108 = VERTEX_POINT ( 'NONE', #166 ) ;
#109 = ADVANCED_FACE ( 'NONE', ( #48 ), #156, .T. ) ;
#110 = COORDINATED_UNIVERSAL_TIME_OFFSET ( 5, 0, .BEHIND. ) ;
#111 = PERSON_AND_ORGANIZATION ( #75, #165 ) ;
#112 = DIRECTION ( 'NONE',  ( 0.0000000000000000000, 0.0000000000000000000, 1.000000000000000000 ) ) ;
#113 = AXIS2_PLACEMENT_3D ( 'NONE', #77, #63, #162 ) ;
#114 = DIRECTION ( 'NONE',  ( 0.0000000000000000000, 0.0000000000000000000, 1.000000000000000000 ) ) ;
#115 = VERTEX_POINT ( 'NONE', #151 ) ;
#116 = CLOSED_SHELL ( 'NONE', ( #109, #143, #64, #52 ) ) ;
#117 = APPROVAL_DATE_TIME ( #153, #58 ) ;
#118 = CC_DESIGN_DATE_AND_TIME_ASSIGNMENT ( #47, #91, ( #44 ) ) ;
#119 = APPROVAL_PERSON_ORGANIZATION ( #20, #94, #22 ) ;
#120 = ORIENTED_EDGE ( 'NONE', *, *, #61, .T. ) ;
#121 = AXIS2_PLACEMENT_3D ( 'NONE', #136, #98, #154 ) ;
#122 = APPROVAL_ROLE ( '' ) ;
#123 = PRODUCT ( 'Web Model 45308_45808', 'Web Model 45308_45808', '', ( #10 ) ) ;
#124 = DIRECTION ( 'NONE',  ( 1.000000000000000000, 0.0000000000000000000, 0.0000000000000000000 ) ) ;
#125 = AXIS2_PLACEMENT_3D ( 'NONE', #168, #66, #85 ) ;
#126 = ORIENTED_EDGE ( 'NONE', *, *, #53, .T. ) ;
#127 = PLANE ( 'NONE',  #100 ) ;
#128 = FACE_OUTER_BOUND ( 'NONE', #28, .T. ) ;
#129 = DIRECTION ( 'NONE',  ( 1.000000000000000000, 0.0000000000000000000, 0.0000000000000000000 ) ) ;
#130 = COORDINATED_UNIVERSAL_TIME_OFFSET ( 5, 0, .BEHIND. ) ;
#131 = CC_DESIGN_PERSON_AND_ORGANIZATION_ASSIGNMENT ( #43, #13, ( #51 ) ) ;
#132 = ORIENTED_EDGE ( 'NONE', *, *, #95, .F. ) ;
#133 = AXIS2_PLACEMENT_3D ( 'NONE', #30, #87, #5 ) ;
#134 = PERSON_AND_ORGANIZATION_ROLE ( 'classification_officer' ) ;
#135 = CYLINDRICAL_SURFACE ( 'NONE', #133, 5.000000000000000000 ) ;
#136 = CARTESIAN_POINT ( 'NONE',  ( 0.0000000000000000000, 0.0000000000000000000, 0.5000000000000000000 ) ) ;
#137 = DIRECTION ( 'NONE',  ( 1.000000000000000000, 0.0000000000000000000, 0.0000000000000000000 ) ) ;
#138 = ORIENTED_EDGE ( 'NONE', *, *, #95, .T. ) ;
#139 = APPROVAL_ROLE ( '' ) ;
#140 = FACE_OUTER_BOUND ( 'NONE', #32, .T. ) ;
#141 = LOCAL_TIME ( 10, 46, 59.00000000000000000, #73 ) ;
#142 = PERSON_AND_ORGANIZATION_ROLE ( 'creator' ) ;
#143 = ADVANCED_FACE ( 'NONE', ( #150 ), #135, .T. ) ;
#144 =( GEOMETRIC_REPRESENTATION_CONTEXT ( 3 ) GLOBAL_UNCERTAINTY_ASSIGNED_CONTEXT ( ( #55 ) ) GLOBAL_UNIT_ASSIGNED_CONTEXT ( ( #167, #152, #88 ) ) REPRESENTATION_CONTEXT ( 'NONE', 'WORKASPACE' ) );
#145 = APPROVAL_PERSON_ORGANIZATION ( #111, #57, #122 ) ;
#146 = CIRCLE ( 'NONE', #31, 5.000000000000000000 ) ;
#147 = CC_DESIGN_PERSON_AND_ORGANIZATION_ASSIGNMENT ( #9, #60, ( #51 ) ) ;
#148 = DIRECTION ( 'NONE',  ( 0.0000000000000000000, 0.0000000000000000000, 1.000000000000000000 ) ) ;
#149 = DIRECTION ( 'NONE',  ( -0.0000000000000000000, -0.0000000000000000000, -1.000000000000000000 ) ) ;
#150 = FACE_OUTER_BOUND ( 'NONE', #86, .T. ) ;
#151 = CARTESIAN_POINT ( 'NONE',  ( -5.000000000000000000, 0.0000000000000000000, 0.5000000000000000000 ) ) ;
#152 =( NAMED_UNIT ( * ) PLANE_ANGLE_UNIT ( ) SI_UNIT ( $, .RADIAN. ) );
#153 = DATE_AND_TIME ( #16, #21 ) ;
#154 = DIRECTION ( 'NONE',  ( -1.000000000000000000, 0.0000000000000000000, 0.0000000000000000000 ) ) ;
#155 = VECTOR ( 'NONE', #149, 1000.000000000000000 ) ;
#156 = CYLINDRICAL_SURFACE ( 'NONE', #121, 5.000000000000000000 ) ;
#157 = ORIENTED_EDGE ( 'NONE', *, *, #53, .F. ) ;
#158 = COORDINATED_UNIVERSAL_TIME_OFFSET ( 5, 0, .BEHIND. ) ;
#159 = SECURITY_CLASSIFICATION_LEVEL ( 'unclassified' ) ;
#160 = LOCAL_TIME ( 10, 46, 59.00000000000000000, #78 ) ;
#161 = APPLICATION_PROTOCOL_DEFINITION ( 'international standard', 'config_control_design', 1994, #93 ) ;
#162 = DIRECTION ( 'NONE',  ( 1.000000000000000000, 0.0000000000000000000, 0.0000000000000000000 ) ) ;
#163 = SECURITY_CLASSIFICATION ( '', '', #159 ) ;
#164 = CARTESIAN_POINT ( 'NONE',  ( 0.0000000000000000000, 0.0000000000000000000, -0.5000000000000000000 ) ) ;
#165 = ORGANIZATION ( 'UNSPECIFIED', 'UNSPECIFIED', '' ) ;
#166 = CARTESIAN_POINT ( 'NONE',  ( 5.000000000000000000, 6.123233995736766300E-016, 0.5000000000000000000 ) ) ;
#167 =( LENGTH_UNIT ( ) NAMED_UNIT ( * ) SI_UNIT ( .MILLI., .METRE. ) );
#168 = CARTESIAN_POINT ( 'NONE',  ( 0.0000000000000000000, 0.0000000000000000000, -0.5000000000000000000 ) ) ;
#169 = CIRCLE ( 'NONE', #125, 5.000000000000000000 ) ;
#170 = CARTESIAN_POINT ( 'NONE',  ( 5.000000000000000000, 6.123233995736766300E-016, 0.5000000000000000000 ) ) ;
#171 = APPLICATION_PROTOCOL_DEFINITION ( 'international standard', 'config_control_design', 1994, #33 ) ;
#172 = CC_DESIGN_PERSON_AND_ORGANIZATION_ASSIGNMENT ( #34, #134, ( #163 ) ) ;
#173 = ORIENTED_EDGE ( 'NONE', *, *, #105, .F. ) ;
#174 = PLANE ( 'NONE',  #26 ) ;
#175 = PERSON_AND_ORGANIZATION_ROLE ( 'design_owner' ) ;
ENDSEC;
END-ISO-10303-21;
