ISO-10303-21;
HEADER;
FILE_DESCRIPTION (( 'STEP AP203' ),
    '1' );
FILE_NAME ('Web Model 43369_20880.step',
    '2022-03-16T14:55:20',
    ( '' ),
    ( '' ),
    'SwSTEP 2.0',
    'SolidWorks 2021',
    '' );
FILE_SCHEMA (( 'CONFIG_CONTROL_DESIGN' ));
ENDSEC;

DATA;
#1 = CYLINDRICAL_SURFACE ( 'NONE', #132, 12.50000000000000000 ) ;
#2 = PLANE ( 'NONE',  #163 ) ;
#3 = CC_DESIGN_APPROVAL ( #56, ( #146 ) ) ;
#4 = EDGE_CURVE ( 'NONE', #111, #18, #78, .T. ) ;
#5 = CARTESIAN_POINT ( 'NONE',  ( 0.000000000000000000, 0.000000000000000000, 0.5000000000000000000 ) ) ;
#6 = MANIFOLD_SOLID_BREP ( 'Boss-Extrude1', #31 ) ;
#7 = PERSON_AND_ORGANIZATION ( #107, #37 ) ;
#8 = VERTEX_POINT ( 'NONE', #19 ) ;
#9 = ORIENTED_EDGE ( 'NONE', *, *, #29, .F. ) ;
#10 = ORIENTED_EDGE ( 'NONE', *, *, #151, .T. ) ;
#11 = PERSON_AND_ORGANIZATION_ROLE ( 'design_owner' ) ;
#12 = CYLINDRICAL_SURFACE ( 'NONE', #90, 12.50000000000000000 ) ;
#13 = MECHANICAL_CONTEXT ( 'NONE', #85, 'mechanical' ) ;
#14 = DATE_AND_TIME ( #131, #79 ) ;
#15 = APPROVAL_DATE_TIME ( #115, #61 ) ;
#16 = PERSON_AND_ORGANIZATION ( #107, #37 ) ;
#17 = VERTEX_POINT ( 'NONE', #80 ) ;
#18 = VERTEX_POINT ( 'NONE', #124 ) ;
#19 = CARTESIAN_POINT ( 'NONE',  ( -12.50000000000000000, 0.000000000000000000, 0.000000000000000000 ) ) ;
#20 = DESIGN_CONTEXT ( 'detailed design', #122, 'design' ) ;
#21 = APPROVAL_STATUS ( 'not_yet_approved' ) ;
#22 = ADVANCED_FACE ( 'NONE', ( #94 ), #135, .F. ) ;
#23 = CARTESIAN_POINT ( 'NONE',  ( 0.000000000000000000, 0.000000000000000000, 0.000000000000000000 ) ) ;
#24 = LOCAL_TIME ( 10, 55, 20.00000000000000000, #154 ) ;
#25 = CC_DESIGN_PERSON_AND_ORGANIZATION_ASSIGNMENT ( #59, #46, ( #40 ) ) ;
#26 = COORDINATED_UNIVERSAL_TIME_OFFSET ( 5, 0, .BEHIND. ) ;
#27 = APPROVAL_DATE_TIME ( #89, #161 ) ;
#28 = LOCAL_TIME ( 10, 55, 20.00000000000000000, #167 ) ;
#29 = EDGE_CURVE ( 'NONE', #8, #18, #119, .T. ) ;
#30 = EDGE_LOOP ( 'NONE', ( #63, #145, #121, #171 ) ) ;
#31 = CLOSED_SHELL ( 'NONE', ( #100, #58, #148, #22 ) ) ;
#32 = PRODUCT ( 'Web Model 43369_20880', 'Web Model 43369_20880', '', ( #13 ) ) ;
#33 = EDGE_LOOP ( 'NONE', ( #66, #109, #10, #160 ) ) ;
#34 = APPROVAL_PERSON_ORGANIZATION ( #169, #56, #153 ) ;
#35 = FACE_OUTER_BOUND ( 'NONE', #30, .T. ) ;
#36 = DIRECTION ( 'NONE',  ( 1.000000000000000000, 0.000000000000000000, 0.000000000000000000 ) ) ;
#37 = ORGANIZATION ( 'UNSPECIFIED', 'UNSPECIFIED', '' ) ;
#38 = CARTESIAN_POINT ( 'NONE',  ( 0.000000000000000000, 0.000000000000000000, 0.5000000000000000000 ) ) ;
#39 = UNCERTAINTY_MEASURE_WITH_UNIT (LENGTH_MEASURE( 1.000000000000000082E-05 ), #150, 'distance_accuracy_value', 'NONE');
#40 = PRODUCT_DEFINITION ( 'UNKNOWN', '', #136, #20 ) ;
#41 = LINE ( 'NONE', #127, #155 ) ;
#42 = DATE_TIME_ROLE ( 'classification_date' ) ;
#43 = APPROVAL_PERSON_ORGANIZATION ( #7, #161, #117 ) ;
#44 = DATE_AND_TIME ( #116, #164 ) ;
#45 = COORDINATED_UNIVERSAL_TIME_OFFSET ( 5, 0, .BEHIND. ) ;
#46 = PERSON_AND_ORGANIZATION_ROLE ( 'creator' ) ;
#47 = CC_DESIGN_DATE_AND_TIME_ASSIGNMENT ( #44, #144, ( #40 ) ) ;
#48 = CARTESIAN_POINT ( 'NONE',  ( 12.50000000000000000, 1.530808498934191521E-15, 0.5000000000000000000 ) ) ;
#49 = DIRECTION ( 'NONE',  ( 0.000000000000000000, 0.000000000000000000, 1.000000000000000000 ) ) ;
#50 = CARTESIAN_POINT ( 'NONE',  ( 0.000000000000000000, 0.000000000000000000, 0.000000000000000000 ) ) ;
#51 = DIRECTION ( 'NONE',  ( -0.000000000000000000, -0.000000000000000000, -1.000000000000000000 ) ) ;
#52 = CC_DESIGN_APPROVAL ( #161, ( #136 ) ) ;
#53 = DIRECTION ( 'NONE',  ( -0.000000000000000000, -0.000000000000000000, -1.000000000000000000 ) ) ;
#54 = DIRECTION ( 'NONE',  ( 0.000000000000000000, 0.000000000000000000, 1.000000000000000000 ) ) ;
#55 = LOCAL_TIME ( 10, 55, 20.00000000000000000, #45 ) ;
#56 = APPROVAL ( #91, 'UNSPECIFIED' ) ;
#57 = CALENDAR_DATE ( 2022, 16, 3 ) ;
#58 = ADVANCED_FACE ( 'NONE', ( #35 ), #12, .T. ) ;
#59 = PERSON_AND_ORGANIZATION ( #107, #37 ) ;
#60 = AXIS2_PLACEMENT_3D ( 'NONE', #175, #54, #36 ) ;
#61 = APPROVAL ( #21, 'UNSPECIFIED' ) ;
#62 = EDGE_LOOP ( 'NONE', ( #172, #158 ) ) ;
#63 = ORIENTED_EDGE ( 'NONE', *, *, #4, .F. ) ;
#64 = AXIS2_PLACEMENT_3D ( 'NONE', #81, #49, #157 ) ;
#65 = CC_DESIGN_APPROVAL ( #61, ( #40 ) ) ;
#66 = ORIENTED_EDGE ( 'NONE', *, *, #108, .F. ) ;
#67 = EDGE_CURVE ( 'NONE', #17, #8, #41, .T. ) ;
#68 = EDGE_LOOP ( 'NONE', ( #9, #69 ) ) ;
#69 = ORIENTED_EDGE ( 'NONE', *, *, #151, .F. ) ;
#70 = PRODUCT_RELATED_PRODUCT_CATEGORY ( 'detail', '', ( #32 ) ) ;
#71 = DIRECTION ( 'NONE',  ( -0.000000000000000000, -0.000000000000000000, -1.000000000000000000 ) ) ;
#72 = DIRECTION ( 'NONE',  ( 0.000000000000000000, 0.000000000000000000, 1.000000000000000000 ) ) ;
#73 = CARTESIAN_POINT ( 'NONE',  ( 12.50000000000000000, 1.530808498934191521E-15, 0.5000000000000000000 ) ) ;
#74 = VECTOR ( 'NONE', #147, 1000.000000000000000 ) ;
#75 = PERSON_AND_ORGANIZATION_ROLE ( 'creator' ) ;
#76 = PERSON_AND_ORGANIZATION ( #107, #37 ) ;
#77 = CALENDAR_DATE ( 2022, 16, 3 ) ;
#78 = LINE ( 'NONE', #48, #74 ) ;
#79 = LOCAL_TIME ( 10, 55, 20.00000000000000000, #92 ) ;
#80 = CARTESIAN_POINT ( 'NONE',  ( -12.50000000000000000, 0.000000000000000000, 0.5000000000000000000 ) ) ;
#81 = CARTESIAN_POINT ( 'NONE',  ( 0.000000000000000000, 0.000000000000000000, 0.000000000000000000 ) ) ;
#82 = DIRECTION ( 'NONE',  ( 1.000000000000000000, 0.000000000000000000, 0.000000000000000000 ) ) ;
#83 = DIRECTION ( 'NONE',  ( 1.000000000000000000, 0.000000000000000000, 0.000000000000000000 ) ) ;
#84 = CARTESIAN_POINT ( 'NONE',  ( 0.000000000000000000, 0.000000000000000000, 0.5000000000000000000 ) ) ;
#85 = APPLICATION_CONTEXT ( 'configuration controlled 3d designs of mechanical parts and assemblies' ) ;
#86 = AXIS2_PLACEMENT_3D ( 'NONE', #84, #114, #166 ) ;
#87 = APPLICATION_PROTOCOL_DEFINITION ( 'international standard', 'config_control_design', 1994, #85 ) ;
#88 = CC_DESIGN_PERSON_AND_ORGANIZATION_ASSIGNMENT ( #16, #142, ( #146 ) ) ;
#89 = DATE_AND_TIME ( #77, #28 ) ;
#90 = AXIS2_PLACEMENT_3D ( 'NONE', #5, #71, #126 ) ;
#91 = APPROVAL_STATUS ( 'not_yet_approved' ) ;
#92 = COORDINATED_UNIVERSAL_TIME_OFFSET ( 5, 0, .BEHIND. ) ;
#93 = CC_DESIGN_PERSON_AND_ORGANIZATION_ASSIGNMENT ( #106, #134, ( #136 ) ) ;
#94 = FACE_OUTER_BOUND ( 'NONE', #68, .T. ) ;
#95 = CARTESIAN_POINT ( 'NONE',  ( 0.000000000000000000, 0.000000000000000000, 0.5000000000000000000 ) ) ;
#96 = APPLICATION_PROTOCOL_DEFINITION ( 'international standard', 'config_control_design', 1994, #122 ) ;
#97 = CIRCLE ( 'NONE', #86, 12.50000000000000000 ) ;
#98 = FACE_OUTER_BOUND ( 'NONE', #62, .T. ) ;
#99 =( NAMED_UNIT ( * ) SI_UNIT ( $, .STERADIAN. ) SOLID_ANGLE_UNIT ( ) );
#100 = ADVANCED_FACE ( 'NONE', ( #128 ), #1, .T. ) ;
#101 = APPROVAL_DATE_TIME ( #14, #56 ) ;
#102 = CC_DESIGN_PERSON_AND_ORGANIZATION_ASSIGNMENT ( #76, #75, ( #136 ) ) ;
#103 = DATE_AND_TIME ( #118, #55 ) ;
#104 = APPROVAL_STATUS ( 'not_yet_approved' ) ;
#105 = CC_DESIGN_SECURITY_CLASSIFICATION ( #146, ( #136 ) ) ;
#106 = PERSON_AND_ORGANIZATION ( #107, #37 ) ;
#107 = PERSON ( 'UNSPECIFIED', 'UNSPECIFIED', 'UNSPECIFIED', ('UNSPECIFIED'), ('UNSPECIFIED'), ('UNSPECIFIED') ) ;
#108 = EDGE_CURVE ( 'NONE', #111, #17, #97, .T. ) ;
#109 = ORIENTED_EDGE ( 'NONE', *, *, #4, .T. ) ;
#110 = CIRCLE ( 'NONE', #125, 12.50000000000000000 ) ;
#111 = VERTEX_POINT ( 'NONE', #73 ) ;
#112 = DIRECTION ( 'NONE',  ( 1.000000000000000000, 0.000000000000000000, -0.000000000000000000 ) ) ;
#113 =( NAMED_UNIT ( * ) PLANE_ANGLE_UNIT ( ) SI_UNIT ( $, .RADIAN. ) );
#114 = DIRECTION ( 'NONE',  ( 0.000000000000000000, 0.000000000000000000, 1.000000000000000000 ) ) ;
#115 = DATE_AND_TIME ( #57, #24 ) ;
#116 = CALENDAR_DATE ( 2022, 16, 3 ) ;
#117 = APPROVAL_ROLE ( '' ) ;
#118 = CALENDAR_DATE ( 2022, 16, 3 ) ;
#119 = CIRCLE ( 'NONE', #159, 12.50000000000000000 ) ;
#120 = EDGE_CURVE ( 'NONE', #17, #111, #110, .T. ) ;
#121 = ORIENTED_EDGE ( 'NONE', *, *, #67, .T. ) ;
#122 = APPLICATION_CONTEXT ( 'configuration controlled 3d designs of mechanical parts and assemblies' ) ;
#123 =( GEOMETRIC_REPRESENTATION_CONTEXT ( 3 ) GLOBAL_UNCERTAINTY_ASSIGNED_CONTEXT ( ( #39 ) ) GLOBAL_UNIT_ASSIGNED_CONTEXT ( ( #150, #113, #99 ) ) REPRESENTATION_CONTEXT ( 'NONE', 'WORKASPACE' ) );
#124 = CARTESIAN_POINT ( 'NONE',  ( 12.50000000000000000, 1.530808498934191521E-15, 0.000000000000000000 ) ) ;
#125 = AXIS2_PLACEMENT_3D ( 'NONE', #95, #130, #83 ) ;
#126 = DIRECTION ( 'NONE',  ( -1.000000000000000000, 0.000000000000000000, 0.000000000000000000 ) ) ;
#127 = CARTESIAN_POINT ( 'NONE',  ( -12.50000000000000000, 0.000000000000000000, 0.5000000000000000000 ) ) ;
#128 = FACE_OUTER_BOUND ( 'NONE', #33, .T. ) ;
#129 = CARTESIAN_POINT ( 'NONE',  ( 0.000000000000000000, 0.000000000000000000, 0.5000000000000000000 ) ) ;
#130 = DIRECTION ( 'NONE',  ( 0.000000000000000000, 0.000000000000000000, 1.000000000000000000 ) ) ;
#131 = CALENDAR_DATE ( 2022, 16, 3 ) ;
#132 = AXIS2_PLACEMENT_3D ( 'NONE', #38, #51, #162 ) ;
#133 = SHAPE_DEFINITION_REPRESENTATION ( #173, #174 ) ;
#134 = PERSON_AND_ORGANIZATION_ROLE ( 'design_supplier' ) ;
#135 = PLANE ( 'NONE',  #64 ) ;
#136 = PRODUCT_DEFINITION_FORMATION_WITH_SPECIFIED_SOURCE ( 'ANY', '', #32, .NOT_KNOWN. ) ;
#137 = PERSON_AND_ORGANIZATION ( #107, #37 ) ;
#138 = CC_DESIGN_DATE_AND_TIME_ASSIGNMENT ( #103, #42, ( #146 ) ) ;
#139 = CC_DESIGN_PERSON_AND_ORGANIZATION_ASSIGNMENT ( #137, #11, ( #32 ) ) ;
#140 = APPROVAL_ROLE ( '' ) ;
#141 = DIRECTION ( 'NONE',  ( 0.000000000000000000, 0.000000000000000000, 1.000000000000000000 ) ) ;
#142 = PERSON_AND_ORGANIZATION_ROLE ( 'classification_officer' ) ;
#143 = APPROVAL_PERSON_ORGANIZATION ( #149, #61, #140 ) ;
#144 = DATE_TIME_ROLE ( 'creation_date' ) ;
#145 = ORIENTED_EDGE ( 'NONE', *, *, #120, .F. ) ;
#146 = SECURITY_CLASSIFICATION ( '', '', #168 ) ;
#147 = DIRECTION ( 'NONE',  ( -0.000000000000000000, -0.000000000000000000, -1.000000000000000000 ) ) ;
#148 = ADVANCED_FACE ( 'NONE', ( #98 ), #2, .T. ) ;
#149 = PERSON_AND_ORGANIZATION ( #107, #37 ) ;
#150 =( LENGTH_UNIT ( ) NAMED_UNIT ( * ) SI_UNIT ( .MILLI., .METRE. ) );
#151 = EDGE_CURVE ( 'NONE', #18, #8, #170, .T. ) ;
#152 = DIRECTION ( 'NONE',  ( 0.000000000000000000, 0.000000000000000000, 1.000000000000000000 ) ) ;
#153 = APPROVAL_ROLE ( '' ) ;
#154 = COORDINATED_UNIVERSAL_TIME_OFFSET ( 5, 0, .BEHIND. ) ;
#155 = VECTOR ( 'NONE', #53, 1000.000000000000000 ) ;
#156 = AXIS2_PLACEMENT_3D ( 'NONE', #50, #152, #82 ) ;
#157 = DIRECTION ( 'NONE',  ( 1.000000000000000000, 0.000000000000000000, -0.000000000000000000 ) ) ;
#158 = ORIENTED_EDGE ( 'NONE', *, *, #108, .T. ) ;
#159 = AXIS2_PLACEMENT_3D ( 'NONE', #23, #72, #165 ) ;
#160 = ORIENTED_EDGE ( 'NONE', *, *, #67, .F. ) ;
#161 = APPROVAL ( #104, 'UNSPECIFIED' ) ;
#162 = DIRECTION ( 'NONE',  ( -1.000000000000000000, 0.000000000000000000, 0.000000000000000000 ) ) ;
#163 = AXIS2_PLACEMENT_3D ( 'NONE', #129, #141, #112 ) ;
#164 = LOCAL_TIME ( 10, 55, 20.00000000000000000, #26 ) ;
#165 = DIRECTION ( 'NONE',  ( 1.000000000000000000, 0.000000000000000000, 0.000000000000000000 ) ) ;
#166 = DIRECTION ( 'NONE',  ( 1.000000000000000000, 0.000000000000000000, 0.000000000000000000 ) ) ;
#167 = COORDINATED_UNIVERSAL_TIME_OFFSET ( 5, 0, .BEHIND. ) ;
#168 = SECURITY_CLASSIFICATION_LEVEL ( 'unclassified' ) ;
#169 = PERSON_AND_ORGANIZATION ( #107, #37 ) ;
#170 = CIRCLE ( 'NONE', #60, 12.50000000000000000 ) ;
#171 = ORIENTED_EDGE ( 'NONE', *, *, #29, .T. ) ;
#172 = ORIENTED_EDGE ( 'NONE', *, *, #120, .T. ) ;
#173 = PRODUCT_DEFINITION_SHAPE ( 'NONE', 'NONE',  #40 ) ;
#174 = ADVANCED_BREP_SHAPE_REPRESENTATION ( 'Web Model 43369_20880', ( #6, #156 ), #123 ) ;
#175 = CARTESIAN_POINT ( 'NONE',  ( 0.000000000000000000, 0.000000000000000000, 0.000000000000000000 ) ) ;
ENDSEC;
END-ISO-10303-21;
