ISO-10303-21;
HEADER;
FILE_DESCRIPTION (( 'STEP AP203' ),
    '1' );
FILE_NAME ('TTN098094-E0W.STEP',
    '2019-12-09T20:52:37',
    ( '' ),
    ( '' ),
    'SwSTEP 2.0',
    'SolidWorks 2018',
    '' );
FILE_SCHEMA (( 'CONFIG_CONTROL_DESIGN' ));
ENDSEC;

DATA;
#1 = ADVANCED_FACE ( 'NONE', ( #25 ), #77, .T. ) ;
#2 = CARTESIAN_POINT ( 'NONE',  ( 0.0000000000000000000, 8.547752349680199021E-16, -2.000000000000001776 ) ) ;
#3 = CC_DESIGN_PERSON_AND_ORGANIZATION_ASSIGNMENT ( #114, #241, ( #163 ) ) ;
#4 = DIRECTION ( 'NONE',  ( 0.0000000000000000000, 1.000000000000000000, -4.208753315239004147E-15 ) ) ;
#5 = CARTESIAN_POINT ( 'NONE',  ( 1.555301434917140602E-15, 12.70000000000001705, -1.800000000000000044 ) ) ;
#6 = DATE_AND_TIME ( #293, #258 ) ;
#7 = ORIENTED_EDGE ( 'NONE', *, *, #86, .F. ) ;
#8 = DIRECTION ( 'NONE',  ( 0.0000000000000000000, 1.000000000000000000, -4.200216290258798560E-15 ) ) ;
#9 = ORIENTED_EDGE ( 'NONE', *, *, #20, .T. ) ;
#10 = PRODUCT_DEFINITION_SHAPE ( 'NONE', 'NONE',  #163 ) ;
#11 = DIRECTION ( 'NONE',  ( 8.659560562355000651E-17, -0.7071067811865558994, -0.7071067811865392461 ) ) ;
#12 = LINE ( 'NONE', #120, #264 ) ;
#13 = CARTESIAN_POINT ( 'NONE',  ( 0.0000000000000000000, 8.226905484978720702E-15, -68.20000000000004547 ) ) ;
#14 = ORIENTED_EDGE ( 'NONE', *, *, #35, .F. ) ;
#15 = CARTESIAN_POINT ( 'NONE',  ( 0.0000000000000000000, 12.70000000000001705, -1.999999999999996225 ) ) ;
#16 = DIRECTION ( 'NONE',  ( 0.0000000000000000000, 1.000000000000000000, -4.208753315239004147E-15 ) ) ;
#17 = FACE_OUTER_BOUND ( 'NONE', #232, .T. ) ;
#18 = APPROVAL_ROLE ( '' ) ;
#19 = EDGE_LOOP ( 'NONE', ( #192, #283, #133, #244 ) ) ;
#20 = EDGE_CURVE ( 'NONE', #26, #110, #276, .T. ) ;
#21 = APPROVAL_DATE_TIME ( #228, #296 ) ;
#22 = DATE_TIME_ROLE ( 'creation_date' ) ;
#23 = APPLICATION_PROTOCOL_DEFINITION ( 'international standard', 'config_control_design', 1994, #196 ) ;
#24 = CIRCLE ( 'NONE', #234, 12.50000000000001599 ) ;
#25 = FACE_OUTER_BOUND ( 'NONE', #113, .T. ) ;
#26 = VERTEX_POINT ( 'NONE', #53 ) ;
#27 = PRODUCT_RELATED_PRODUCT_CATEGORY ( 'detail', '', ( #42 ) ) ;
#28 = FACE_OUTER_BOUND ( 'NONE', #59, .T. ) ;
#29 = ADVANCED_FACE ( 'NONE', ( #140 ), #254, .T. ) ;
#30 = EDGE_CURVE ( 'NONE', #85, #174, #222, .T. ) ;
#31 = DIRECTION ( 'NONE',  ( -0.0000000000000000000, -4.205981503748464568E-15, -1.000000000000000000 ) ) ;
#32 = PRODUCT_DEFINITION_FORMATION_WITH_SPECIFIED_SOURCE ( 'ANY', '', #42, .NOT_KNOWN. ) ;
#33 = ORIENTED_EDGE ( 'NONE', *, *, #267, .F. ) ;
#34 = DIRECTION ( 'NONE',  ( 0.0000000000000000000, 1.000000000000000000, -4.206704429243756415E-15 ) ) ;
#35 = EDGE_CURVE ( 'NONE', #124, #48, #100, .T. ) ;
#36 = LINE ( 'NONE', #185, #273 ) ;
#37 = PERSON_AND_ORGANIZATION ( #89, #92 ) ;
#38 = DIRECTION ( 'NONE',  ( -0.0000000000000000000, 3.061515884555943146E-16, -1.000000000000000000 ) ) ;
#39 = CIRCLE ( 'NONE', #181, 12.50000000000000178 ) ;
#40 = DIRECTION ( 'NONE',  ( 0.0000000000000000000, 4.205981503748464568E-15, 1.000000000000000000 ) ) ;
#41 = PERSON_AND_ORGANIZATION_ROLE ( 'design_owner' ) ;
#42 = PRODUCT ( 'TTN098094-E0W', 'TTN098094-E0W', '', ( #201 ) ) ;
#43 = ORIENTED_EDGE ( 'NONE', *, *, #52, .F. ) ;
#44 = ORIENTED_EDGE ( 'NONE', *, *, #245, .T. ) ;
#45 = CC_DESIGN_PERSON_AND_ORGANIZATION_ASSIGNMENT ( #225, #292, ( #32 ) ) ;
#46 = ORIENTED_EDGE ( 'NONE', *, *, #178, .T. ) ;
#47 = CC_DESIGN_SECURITY_CLASSIFICATION ( #94, ( #32 ) ) ;
#48 = VERTEX_POINT ( 'NONE', #209 ) ;
#49 = ADVANCED_FACE ( 'NONE', ( #167 ), #287, .T. ) ;
#50 = CARTESIAN_POINT ( 'NONE',  ( 0.0000000000000000000, 8.411963007499343839E-16, -1.799999999999946532 ) ) ;
#51 = DIRECTION ( 'NONE',  ( -0.0000000000000000000, -4.205981503748464568E-15, -1.000000000000000000 ) ) ;
#52 = EDGE_CURVE ( 'NONE', #174, #124, #12, .T. ) ;
#53 = CARTESIAN_POINT ( 'NONE',  ( 0.0000000000000000000, -8.966425759596754828E-15, 1.999999999999821476 ) ) ;
#54 = LOCAL_TIME ( 15, 52, 37.00000000000000000, #166 ) ;
#55 = DIRECTION ( 'NONE',  ( -0.0000000000000000000, 3.061515884555943146E-16, -1.000000000000000000 ) ) ;
#56 = CARTESIAN_POINT ( 'NONE',  ( 0.0000000000000000000, 1.210542108412724373E-14, 0.8781441557312139601 ) ) ;
#57 = VECTOR ( 'NONE', #117, 1000.000000000000000 ) ;
#58 =( NAMED_UNIT ( * ) SI_UNIT ( $, .STERADIAN. ) SOLID_ANGLE_UNIT ( ) );
#59 = EDGE_LOOP ( 'NONE', ( #223, #260, #141, #218 ) ) ;
#60 = DIRECTION ( 'NONE',  ( 0.0000000000000000000, 1.000000000000000000, 3.073328992872291930E-16 ) ) ;
#61 = AXIS2_PLACEMENT_3D ( 'NONE', #13, #288, #150 ) ;
#62 = CALENDAR_DATE ( 2019, 9, 12 ) ;
#63 = VERTEX_POINT ( 'NONE', #259 ) ;
#64 = CC_DESIGN_APPROVAL ( #296, ( #94 ) ) ;
#65 = CIRCLE ( 'NONE', #104, 12.50000000000001599 ) ;
#66 = APPROVAL_STATUS ( 'not_yet_approved' ) ;
#67 =( GEOMETRIC_REPRESENTATION_CONTEXT ( 3 ) GLOBAL_UNCERTAINTY_ASSIGNED_CONTEXT ( ( #81 ) ) GLOBAL_UNIT_ASSIGNED_CONTEXT ( ( #171, #151, #58 ) ) REPRESENTATION_CONTEXT ( 'NONE', 'WORKASPACE' ) );
#68 = EDGE_CURVE ( 'NONE', #63, #124, #36, .T. ) ;
#69 = COORDINATED_UNIVERSAL_TIME_OFFSET ( 5, 0, .BEHIND. ) ;
#70 = ORIENTED_EDGE ( 'NONE', *, *, #125, .T. ) ;
#71 = LOCAL_TIME ( 15, 52, 37.00000000000000000, #115 ) ;
#72 = CC_DESIGN_PERSON_AND_ORGANIZATION_ASSIGNMENT ( #75, #107, ( #32 ) ) ;
#73 = CARTESIAN_POINT ( 'NONE',  ( 1.555301434917140602E-15, -12.70000000000001705, -1.799999999999893241 ) ) ;
#74 = CARTESIAN_POINT ( 'NONE',  ( 0.0000000000000000000, 1.210542108412724373E-14, 0.8781441557312139601 ) ) ;
#75 = PERSON_AND_ORGANIZATION ( #89, #92 ) ;
#76 = APPROVAL ( #66, 'UNSPECIFIED' ) ;
#77 = SPHERICAL_SURFACE ( 'NONE', #142, 70.19999999999986073 ) ;
#78 = CARTESIAN_POINT ( 'NONE',  ( 0.0000000000000000000, 12.70000000000001528, 0.6781441557311612689 ) ) ;
#79 = DIRECTION ( 'NONE',  ( -0.0000000000000000000, -4.205981503748464568E-15, -1.000000000000000000 ) ) ;
#80 = DIRECTION ( 'NONE',  ( 0.0000000000000000000, 1.000000000000000000, -4.200216290258798560E-15 ) ) ;
#81 = UNCERTAINTY_MEASURE_WITH_UNIT (LENGTH_MEASURE( 1.000000000000000082E-05 ), #171, 'distance_accuracy_value', 'NONE');
#82 = PERSON_AND_ORGANIZATION ( #89, #92 ) ;
#83 = DIRECTION ( 'NONE',  ( -0.0000000000000000000, 3.061515884555943146E-16, -1.000000000000000000 ) ) ;
#84 = APPLICATION_PROTOCOL_DEFINITION ( 'international standard', 'config_control_design', 1994, #219 ) ;
#85 = VERTEX_POINT ( 'NONE', #78 ) ;
#86 = EDGE_CURVE ( 'NONE', #148, #110, #161, .T. ) ;
#87 = CARTESIAN_POINT ( 'NONE',  ( 0.0000000000000000000, 0.0000000000000000000, 0.0000000000000000000 ) ) ;
#88 = ORIENTED_EDGE ( 'NONE', *, *, #96, .T. ) ;
#89 = PERSON ( 'UNSPECIFIED', 'UNSPECIFIED', 'UNSPECIFIED', ('UNSPECIFIED'), ('UNSPECIFIED'), ('UNSPECIFIED') ) ;
#90 = DIRECTION ( 'NONE',  ( 1.000000000000000000, 0.0000000000000000000, 0.0000000000000000000 ) ) ;
#91 = AXIS2_PLACEMENT_3D ( 'NONE', #269, #169, #80 ) ;
#92 = ORGANIZATION ( 'UNSPECIFIED', 'UNSPECIFIED', '' ) ;
#93 = FACE_OUTER_BOUND ( 'NONE', #19, .T. ) ;
#94 = SECURITY_CLASSIFICATION ( '', '', #131 ) ;
#95 = ADVANCED_FACE ( 'NONE', ( #17 ), #144, .T. ) ;
#96 = EDGE_CURVE ( 'NONE', #204, #63, #24, .T. ) ;
#97 = LINE ( 'NONE', #170, #123 ) ;
#98 = AXIS2_PLACEMENT_3D ( 'NONE', #74, #31, #233 ) ;
#99 = CARTESIAN_POINT ( 'NONE',  ( 0.0000000000000000000, 8.226905484978720702E-15, -68.20000000000004547 ) ) ;
#100 = CIRCLE ( 'NONE', #168, 12.70000000000001705 ) ;
#101 = DIRECTION ( 'NONE',  ( -0.0000000000000000000, 3.061515884555943146E-16, -1.000000000000000000 ) ) ;
#102 = DIRECTION ( 'NONE',  ( -0.0000000000000000000, -4.205981503748464568E-15, -1.000000000000000000 ) ) ;
#103 = DIRECTION ( 'NONE',  ( 1.000000000000000000, 0.0000000000000000000, -0.0000000000000000000 ) ) ;
#104 = AXIS2_PLACEMENT_3D ( 'NONE', #155, #128, #172 ) ;
#105 = DIRECTION ( 'NONE',  ( 0.0000000000000000000, -1.000000000000000000, 4.200216290258798560E-15 ) ) ;
#106 = ORIENTED_EDGE ( 'NONE', *, *, #224, .T. ) ;
#107 = PERSON_AND_ORGANIZATION_ROLE ( 'creator' ) ;
#108 = APPROVAL_DATE_TIME ( #300, #76 ) ;
#109 = ORIENTED_EDGE ( 'NONE', *, *, #125, .F. ) ;
#110 = VERTEX_POINT ( 'NONE', #145 ) ;
#111 = VECTOR ( 'NONE', #11, 999.9999999999998863 ) ;
#112 = APPROVAL ( #271, 'UNSPECIFIED' ) ;
#113 = EDGE_LOOP ( 'NONE', ( #137, #289, #280 ) ) ;
#114 = PERSON_AND_ORGANIZATION ( #89, #92 ) ;
#115 = COORDINATED_UNIVERSAL_TIME_OFFSET ( 5, 0, .BEHIND. ) ;
#116 = CIRCLE ( 'NONE', #61, 70.19999999999986073 ) ;
#117 = DIRECTION ( 'NONE',  ( 8.659560562354931626E-17, 0.7071067811865504593, 0.7071067811865445751 ) ) ;
#118 = DIRECTION ( 'NONE',  ( 0.0000000000000000000, 1.000000000000000000, 3.953785700232046773E-16 ) ) ;
#119 = FACE_OUTER_BOUND ( 'NONE', #179, .T. ) ;
#120 = CARTESIAN_POINT ( 'NONE',  ( 1.555301434917140602E-15, -12.70000000000001705, -2.000000000000003997 ) ) ;
#121 = DIRECTION ( 'NONE',  ( 0.0000000000000000000, -0.7071067811865444641, 0.7071067811865505703 ) ) ;
#122 = DIRECTION ( 'NONE',  ( 0.0000000000000000000, 1.000000000000000000, 3.073328992872291930E-16 ) ) ;
#123 = VECTOR ( 'NONE', #265, 1000.000000000000114 ) ;
#124 = VERTEX_POINT ( 'NONE', #73 ) ;
#125 = EDGE_CURVE ( 'NONE', #204, #48, #256, .T. ) ;
#126 = PERSON_AND_ORGANIZATION ( #89, #92 ) ;
#127 = CARTESIAN_POINT ( 'NONE',  ( 0.0000000000000000000, 8.411963007499343839E-16, -1.799999999999946532 ) ) ;
#128 = DIRECTION ( 'NONE',  ( -0.0000000000000000000, -4.205981503748464568E-15, -1.000000000000000000 ) ) ;
#129 = CARTESIAN_POINT ( 'NONE',  ( 1.555301434917139024E-15, -12.69999999999999396, 0.6781441557312681834 ) ) ;
#130 = CARTESIAN_POINT ( 'NONE',  ( 0.0000000000000000000, 1.126422478337755271E-14, 0.6781441557312146706 ) ) ;
#131 = SECURITY_CLASSIFICATION_LEVEL ( 'unclassified' ) ;
#132 = EDGE_CURVE ( 'NONE', #26, #148, #116, .T. ) ;
#133 = ORIENTED_EDGE ( 'NONE', *, *, #240, .T. ) ;
#134 = ORIENTED_EDGE ( 'NONE', *, *, #96, .F. ) ;
#135 = CIRCLE ( 'NONE', #200, 12.70000000000000462 ) ;
#136 = CC_DESIGN_APPROVAL ( #76, ( #32 ) ) ;
#137 = ORIENTED_EDGE ( 'NONE', *, *, #20, .F. ) ;
#138 = CONICAL_SURFACE ( 'NONE', #286, 12.50000000000000178, 0.7853981633974559395 ) ;
#139 = APPROVAL_PERSON_ORGANIZATION ( #195, #76, #175 ) ;
#140 = FACE_OUTER_BOUND ( 'NONE', #272, .T. ) ;
#141 = ORIENTED_EDGE ( 'NONE', *, *, #245, .F. ) ;
#142 = AXIS2_PLACEMENT_3D ( 'NONE', #147, #184, #118 ) ;
#143 = DESIGN_CONTEXT ( 'detailed design', #219, 'design' ) ;
#144 = CYLINDRICAL_SURFACE ( 'NONE', #252, 12.70000000000001705 ) ;
#145 = CARTESIAN_POINT ( 'NONE',  ( 0.0000000000000000000, 12.50000000000001421, 0.8781441557311613355 ) ) ;
#146 = AXIS2_PLACEMENT_3D ( 'NONE', #99, #281, #165 ) ;
#147 = CARTESIAN_POINT ( 'NONE',  ( 0.0000000000000000000, 8.226905484978720702E-15, -68.20000000000004547 ) ) ;
#148 = VERTEX_POINT ( 'NONE', #237 ) ;
#149 = DIRECTION ( 'NONE',  ( -0.0000000000000000000, 3.061515884555943146E-16, -1.000000000000000000 ) ) ;
#150 = DIRECTION ( 'NONE',  ( -1.224646799147353207E-16, 1.000000000000000000, 0.0000000000000000000 ) ) ;
#151 =( NAMED_UNIT ( * ) PLANE_ANGLE_UNIT ( ) SI_UNIT ( $, .RADIAN. ) );
#152 = LOCAL_TIME ( 15, 52, 37.00000000000000000, #212 ) ;
#153 = CARTESIAN_POINT ( 'NONE',  ( 0.0000000000000000000, 8.547752349680193105E-16, -2.000000000000000000 ) ) ;
#154 = DIRECTION ( 'NONE',  ( 0.0000000000000000000, -1.000000000000000000, 4.200216290258798560E-15 ) ) ;
#155 = CARTESIAN_POINT ( 'NONE',  ( 0.0000000000000000000, 2.393690422586194264E-28, -1.999999999999947153 ) ) ;
#156 = PERSON_AND_ORGANIZATION_ROLE ( 'classification_officer' ) ;
#157 = AXIS2_PLACEMENT_3D ( 'NONE', #2, #149, #255 ) ;
#158 = APPROVAL_ROLE ( '' ) ;
#159 = EDGE_LOOP ( 'NONE', ( #46, #247, #261, #197 ) ) ;
#160 = LOCAL_TIME ( 15, 52, 37.00000000000000000, #220 ) ;
#161 = CIRCLE ( 'NONE', #202, 12.50000000000000178 ) ;
#162 = CYLINDRICAL_SURFACE ( 'NONE', #299, 12.70000000000001705 ) ;
#163 = PRODUCT_DEFINITION ( 'UNKNOWN', '', #32, #143 ) ;
#164 = ADVANCED_FACE ( 'NONE', ( #250 ), #183, .T. ) ;
#165 = DIRECTION ( 'NONE',  ( 0.0000000000000000000, 0.0000000000000000000, 1.000000000000000000 ) ) ;
#166 = COORDINATED_UNIVERSAL_TIME_OFFSET ( 5, 0, .BEHIND. ) ;
#167 = FACE_OUTER_BOUND ( 'NONE', #159, .T. ) ;
#168 = AXIS2_PLACEMENT_3D ( 'NONE', #50, #206, #8 ) ;
#169 = DIRECTION ( 'NONE',  ( -0.0000000000000000000, -4.205981503748464568E-15, -1.000000000000000000 ) ) ;
#170 = CARTESIAN_POINT ( 'NONE',  ( 0.0000000000000000000, 12.50000000000001421, 0.8781441557311613355 ) ) ;
#171 =( LENGTH_UNIT ( ) NAMED_UNIT ( * ) SI_UNIT ( .MILLI., .METRE. ) );
#172 = DIRECTION ( 'NONE',  ( 0.0000000000000000000, 1.000000000000000000, -4.198030811863867646E-15 ) ) ;
#173 = PERSON_AND_ORGANIZATION ( #89, #92 ) ;
#174 = VERTEX_POINT ( 'NONE', #129 ) ;
#175 = APPROVAL_ROLE ( '' ) ;
#176 = CALENDAR_DATE ( 2019, 9, 12 ) ;
#177 = CIRCLE ( 'NONE', #91, 12.70000000000001705 ) ;
#178 = EDGE_CURVE ( 'NONE', #110, #148, #39, .T. ) ;
#179 = EDGE_LOOP ( 'NONE', ( #187, #9, #7 ) ) ;
#180 = EDGE_LOOP ( 'NONE', ( #109, #33, #199, #291 ) ) ;
#181 = AXIS2_PLACEMENT_3D ( 'NONE', #56, #79, #285 ) ;
#182 = ADVANCED_BREP_SHAPE_REPRESENTATION ( 'TTN098094-E0W', ( #213, #227 ), #67 ) ;
#183 = CONICAL_SURFACE ( 'NONE', #246, 12.70000000000001705, 0.7853981633974482790 ) ;
#184 = DIRECTION ( 'NONE',  ( 1.000000000000000000, 0.0000000000000000000, -0.0000000000000000000 ) ) ;
#185 = CARTESIAN_POINT ( 'NONE',  ( 0.0000000000000000000, -12.70000000000001705, -1.799999999999893241 ) ) ;
#186 = CARTESIAN_POINT ( 'NONE',  ( 0.0000000000000000000, 2.393690422586194264E-28, -1.999999999999947153 ) ) ;
#187 = ORIENTED_EDGE ( 'NONE', *, *, #132, .F. ) ;
#188 = SHAPE_DEFINITION_REPRESENTATION ( #10, #182 ) ;
#189 = CARTESIAN_POINT ( 'NONE',  ( 0.0000000000000000000, 8.411963007499343839E-16, -1.799999999999946532 ) ) ;
#190 = DIRECTION ( 'NONE',  ( 0.0000000000000000000, 1.000000000000000000, -4.206704429243756415E-15 ) ) ;
#191 = CC_DESIGN_APPROVAL ( #112, ( #163 ) ) ;
#192 = ORIENTED_EDGE ( 'NONE', *, *, #207, .F. ) ;
#193 = DIRECTION ( 'NONE',  ( 0.0000000000000000000, 4.205981503748464568E-15, 1.000000000000000000 ) ) ;
#194 = LINE ( 'NONE', #239, #111 ) ;
#195 = PERSON_AND_ORGANIZATION ( #89, #92 ) ;
#196 = APPLICATION_CONTEXT ( 'configuration controlled 3d designs of mechanical parts and assemblies' ) ;
#197 = ORIENTED_EDGE ( 'NONE', *, *, #240, .F. ) ;
#198 = APPROVAL_STATUS ( 'not_yet_approved' ) ;
#199 = ORIENTED_EDGE ( 'NONE', *, *, #68, .T. ) ;
#200 = AXIS2_PLACEMENT_3D ( 'NONE', #130, #290, #16 ) ;
#201 = MECHANICAL_CONTEXT ( 'NONE', #196, 'mechanical' ) ;
#202 = AXIS2_PLACEMENT_3D ( 'NONE', #282, #102, #34 ) ;
#203 = EDGE_LOOP ( 'NONE', ( #134, #70, #44, #215 ) ) ;
#204 = VERTEX_POINT ( 'NONE', #268 ) ;
#205 = CC_DESIGN_DATE_AND_TIME_ASSIGNMENT ( #243, #221, ( #94 ) ) ;
#206 = DIRECTION ( 'NONE',  ( -0.0000000000000000000, -4.205981503748464568E-15, -1.000000000000000000 ) ) ;
#207 = EDGE_CURVE ( 'NONE', #148, #174, #194, .T. ) ;
#208 = CARTESIAN_POINT ( 'NONE',  ( 0.0000000000000000000, 1.126422478337755271E-14, 0.6781441557312146706 ) ) ;
#209 = CARTESIAN_POINT ( 'NONE',  ( 0.0000000000000000000, 12.70000000000001705, -1.800000000000000044 ) ) ;
#210 = CARTESIAN_POINT ( 'NONE',  ( 0.0000000000000000000, 8.226905484978720702E-15, -68.20000000000004547 ) ) ;
#211 = CARTESIAN_POINT ( 'NONE',  ( 0.0000000000000000000, 1.210542108412724373E-14, 0.8781441557312139601 ) ) ;
#212 = COORDINATED_UNIVERSAL_TIME_OFFSET ( 5, 0, .BEHIND. ) ;
#213 = MANIFOLD_SOLID_BREP ( 'TTN098095-1-solid1', #295 ) ;
#214 = AXIS2_PLACEMENT_3D ( 'NONE', #208, #51, #4 ) ;
#215 = ORIENTED_EDGE ( 'NONE', *, *, #68, .F. ) ;
#216 = DIRECTION ( 'NONE',  ( 0.0000000000000000000, 0.0000000000000000000, 1.000000000000000000 ) ) ;
#217 = CONICAL_SURFACE ( 'NONE', #274, 12.70000000000001705, 0.7853981633974482790 ) ;
#218 = ORIENTED_EDGE ( 'NONE', *, *, #224, .F. ) ;
#219 = APPLICATION_CONTEXT ( 'configuration controlled 3d designs of mechanical parts and assemblies' ) ;
#220 = COORDINATED_UNIVERSAL_TIME_OFFSET ( 5, 0, .BEHIND. ) ;
#221 = DATE_TIME_ROLE ( 'classification_date' ) ;
#222 = CIRCLE ( 'NONE', #214, 12.70000000000000462 ) ;
#223 = ORIENTED_EDGE ( 'NONE', *, *, #30, .T. ) ;
#224 = EDGE_CURVE ( 'NONE', #85, #48, #229, .T. ) ;
#225 = PERSON_AND_ORGANIZATION ( #89, #92 ) ;
#226 = APPROVAL_DATE_TIME ( #294, #112 ) ;
#227 = AXIS2_PLACEMENT_3D ( 'NONE', #87, #216, #90 ) ;
#228 = DATE_AND_TIME ( #297, #71 ) ;
#229 = LINE ( 'NONE', #15, #275 ) ;
#230 = ADVANCED_FACE ( 'NONE', ( #93 ), #138, .T. ) ;
#231 = DIRECTION ( 'NONE',  ( -0.0000000000000000000, -4.205981503748464568E-15, -1.000000000000000000 ) ) ;
#232 = EDGE_LOOP ( 'NONE', ( #43, #248, #106, #14 ) ) ;
#233 = DIRECTION ( 'NONE',  ( 0.0000000000000000000, 1.000000000000000000, -4.206704429243756415E-15 ) ) ;
#234 = AXIS2_PLACEMENT_3D ( 'NONE', #186, #231, #251 ) ;
#235 = CARTESIAN_POINT ( 'NONE',  ( 0.0000000000000000000, 8.547752349680193105E-16, -2.000000000000000000 ) ) ;
#236 = DIRECTION ( 'NONE',  ( -0.0000000000000000000, -4.205981503748464568E-15, -1.000000000000000000 ) ) ;
#237 = CARTESIAN_POINT ( 'NONE',  ( 1.543054966925665667E-15, -12.49999999999999112, 0.8781441557312664736 ) ) ;
#238 = ADVANCED_FACE ( 'NONE', ( #28 ), #162, .T. ) ;
#239 = CARTESIAN_POINT ( 'NONE',  ( 1.530808498934191719E-15, -12.49999999999999112, 0.8781441557312664736 ) ) ;
#240 = EDGE_CURVE ( 'NONE', #110, #85, #97, .T. ) ;
#241 = PERSON_AND_ORGANIZATION_ROLE ( 'creator' ) ;
#242 = CC_DESIGN_PERSON_AND_ORGANIZATION_ASSIGNMENT ( #82, #41, ( #42 ) ) ;
#243 = DATE_AND_TIME ( #176, #54 ) ;
#244 = ORIENTED_EDGE ( 'NONE', *, *, #257, .F. ) ;
#245 = EDGE_CURVE ( 'NONE', #48, #124, #177, .T. ) ;
#246 = AXIS2_PLACEMENT_3D ( 'NONE', #189, #193, #154 ) ;
#247 = ORIENTED_EDGE ( 'NONE', *, *, #207, .T. ) ;
#248 = ORIENTED_EDGE ( 'NONE', *, *, #257, .T. ) ;
#249 = APPROVAL_PERSON_ORGANIZATION ( #126, #296, #18 ) ;
#250 = FACE_OUTER_BOUND ( 'NONE', #180, .T. ) ;
#251 = DIRECTION ( 'NONE',  ( 0.0000000000000000000, 1.000000000000000000, -4.198030811863867646E-15 ) ) ;
#252 = AXIS2_PLACEMENT_3D ( 'NONE', #235, #55, #122 ) ;
#253 = FACE_OUTER_BOUND ( 'NONE', #203, .T. ) ;
#254 = PLANE ( 'NONE',  #157 ) ;
#255 = DIRECTION ( 'NONE',  ( 0.0000000000000000000, 1.000000000000000000, 3.061515884555943146E-16 ) ) ;
#256 = LINE ( 'NONE', #5, #57 ) ;
#257 = EDGE_CURVE ( 'NONE', #174, #85, #135, .T. ) ;
#258 = LOCAL_TIME ( 15, 52, 37.00000000000000000, #69 ) ;
#259 = CARTESIAN_POINT ( 'NONE',  ( 0.0000000000000000000, -12.50000000000001599, -1.999999999999894751 ) ) ;
#260 = ORIENTED_EDGE ( 'NONE', *, *, #52, .T. ) ;
#261 = ORIENTED_EDGE ( 'NONE', *, *, #30, .F. ) ;
#262 = DIRECTION ( 'NONE',  ( 0.0000000000000000000, 1.000000000000000000, 3.953785700232046773E-16 ) ) ;
#263 = CC_DESIGN_DATE_AND_TIME_ASSIGNMENT ( #6, #22, ( #163 ) ) ;
#264 = VECTOR ( 'NONE', #101, 1000.000000000000000 ) ;
#265 = DIRECTION ( 'NONE',  ( 0.0000000000000000000, 0.7071067811865499042, -0.7071067811865451302 ) ) ;
#266 = CALENDAR_DATE ( 2019, 9, 12 ) ;
#267 = EDGE_CURVE ( 'NONE', #63, #204, #65, .T. ) ;
#268 = CARTESIAN_POINT ( 'NONE',  ( 1.543054966925667245E-15, 12.50000000000001599, -1.999999999999999556 ) ) ;
#269 = CARTESIAN_POINT ( 'NONE',  ( 0.0000000000000000000, 8.411963007499343839E-16, -1.799999999999946532 ) ) ;
#270 = AXIS2_PLACEMENT_3D ( 'NONE', #210, #103, #262 ) ;
#271 = APPROVAL_STATUS ( 'not_yet_approved' ) ;
#272 = EDGE_LOOP ( 'NONE', ( #298, #88 ) ) ;
#273 = VECTOR ( 'NONE', #121, 1000.000000000000000 ) ;
#274 = AXIS2_PLACEMENT_3D ( 'NONE', #127, #40, #105 ) ;
#275 = VECTOR ( 'NONE', #83, 1000.000000000000000 ) ;
#276 = CIRCLE ( 'NONE', #146, 70.19999999999986073 ) ;
#277 = ADVANCED_FACE ( 'NONE', ( #253 ), #217, .T. ) ;
#278 = CC_DESIGN_PERSON_AND_ORGANIZATION_ASSIGNMENT ( #173, #156, ( #94 ) ) ;
#279 = APPROVAL_PERSON_ORGANIZATION ( #37, #112, #158 ) ;
#280 = ORIENTED_EDGE ( 'NONE', *, *, #178, .F. ) ;
#281 = DIRECTION ( 'NONE',  ( -1.000000000000000000, 0.0000000000000000000, 0.0000000000000000000 ) ) ;
#282 = CARTESIAN_POINT ( 'NONE',  ( 0.0000000000000000000, 1.210542108412724373E-14, 0.8781441557312139601 ) ) ;
#283 = ORIENTED_EDGE ( 'NONE', *, *, #86, .T. ) ;
#284 = SPHERICAL_SURFACE ( 'NONE', #270, 70.19999999999986073 ) ;
#285 = DIRECTION ( 'NONE',  ( 0.0000000000000000000, 1.000000000000000000, -4.206704429243756415E-15 ) ) ;
#286 = AXIS2_PLACEMENT_3D ( 'NONE', #211, #236, #190 ) ;
#287 = CONICAL_SURFACE ( 'NONE', #98, 12.50000000000000178, 0.7853981633974559395 ) ;
#288 = DIRECTION ( 'NONE',  ( 1.000000000000000000, 1.224646799147353207E-16, 3.749275628560213616E-32 ) ) ;
#289 = ORIENTED_EDGE ( 'NONE', *, *, #132, .T. ) ;
#290 = DIRECTION ( 'NONE',  ( -0.0000000000000000000, -4.205981503748464568E-15, -1.000000000000000000 ) ) ;
#291 = ORIENTED_EDGE ( 'NONE', *, *, #35, .T. ) ;
#292 = PERSON_AND_ORGANIZATION_ROLE ( 'design_supplier' ) ;
#293 = CALENDAR_DATE ( 2019, 9, 12 ) ;
#294 = DATE_AND_TIME ( #266, #152 ) ;
#295 = CLOSED_SHELL ( 'NONE', ( #1, #49, #277, #238, #95, #164, #29, #230, #301 ) ) ;
#296 = APPROVAL ( #198, 'UNSPECIFIED' ) ;
#297 = CALENDAR_DATE ( 2019, 9, 12 ) ;
#298 = ORIENTED_EDGE ( 'NONE', *, *, #267, .T. ) ;
#299 = AXIS2_PLACEMENT_3D ( 'NONE', #153, #38, #60 ) ;
#300 = DATE_AND_TIME ( #62, #160 ) ;
#301 = ADVANCED_FACE ( 'NONE', ( #119 ), #284, .T. ) ;
ENDSEC;
END-ISO-10303-21;
