ISO-10303-21;
HEADER;
FILE_DESCRIPTION (( 'STEP AP203' ),
    '1' );
FILE_NAME ('43635_Default.step',
    '2017-04-12T17:56:24',
    ( '' ),
    ( '' ),
    'SwSTEP 2.0',
    'SolidWorks 2016',
    '' );
FILE_SCHEMA (( 'CONFIG_CONTROL_DESIGN' ));
ENDSEC;

DATA;
#1 = CARTESIAN_POINT ( 'NONE',  ( 11.87500000000000200, 1.454268073987482300E-015, -0.5000000000000000000 ) ) ;
#2 = CIRCLE ( 'NONE', #10, 11.87500000000000200 ) ;
#3 = PERSON_AND_ORGANIZATION ( #109, #40 ) ;
#4 = CC_DESIGN_DATE_AND_TIME_ASSIGNMENT ( #53, #69, ( #164 ) ) ;
#5 = DIRECTION ( 'NONE',  ( -0.0000000000000000000, -0.0000000000000000000, -1.000000000000000000 ) ) ;
#6 = ADVANCED_FACE ( 'NONE', ( #122 ), #85, .T. ) ;
#7 = APPROVAL_STATUS ( 'not_yet_approved' ) ;
#8 = PRODUCT ( '43635_Default', '43635_Default', '', ( #133 ) ) ;
#9 =( NAMED_UNIT ( * ) PLANE_ANGLE_UNIT ( ) SI_UNIT ( $, .RADIAN. ) );
#10 = AXIS2_PLACEMENT_3D ( 'NONE', #145, #48, #125 ) ;
#11 = LOCAL_TIME ( 13, 56, 24.00000000000000000, #141 ) ;
#12 = AXIS2_PLACEMENT_3D ( 'NONE', #135, #94, #160 ) ;
#13 = EDGE_CURVE ( 'NONE', #54, #62, #50, .T. ) ;
#14 = DIRECTION ( 'NONE',  ( -0.0000000000000000000, -0.0000000000000000000, -1.000000000000000000 ) ) ;
#15 = ORIENTED_EDGE ( 'NONE', *, *, #46, .F. ) ;
#16 = COORDINATED_UNIVERSAL_TIME_OFFSET ( 5, 0, .BEHIND. ) ;
#17 = APPROVAL ( #110, 'UNSPECIFIED' ) ;
#18 = ORIENTED_EDGE ( 'NONE', *, *, #66, .T. ) ;
#19 = LOCAL_TIME ( 13, 56, 24.00000000000000000, #75 ) ;
#20 = ORIENTED_EDGE ( 'NONE', *, *, #58, .F. ) ;
#21 = AXIS2_PLACEMENT_3D ( 'NONE', #115, #31, #128 ) ;
#22 =( GEOMETRIC_REPRESENTATION_CONTEXT ( 3 ) GLOBAL_UNCERTAINTY_ASSIGNED_CONTEXT ( ( #78 ) ) GLOBAL_UNIT_ASSIGNED_CONTEXT ( ( #61, #9, #70 ) ) REPRESENTATION_CONTEXT ( 'NONE', 'WORKASPACE' ) );
#23 = VERTEX_POINT ( 'NONE', #102 ) ;
#24 = EDGE_CURVE ( 'NONE', #23, #97, #2, .T. ) ;
#25 = APPROVAL_DATE_TIME ( #168, #17 ) ;
#26 = APPROVAL_ROLE ( '' ) ;
#27 = DIRECTION ( 'NONE',  ( 0.0000000000000000000, 0.0000000000000000000, 1.000000000000000000 ) ) ;
#28 = EDGE_LOOP ( 'NONE', ( #15, #95, #159, #154 ) ) ;
#29 = CC_DESIGN_APPROVAL ( #17, ( #164 ) ) ;
#30 = CARTESIAN_POINT ( 'NONE',  ( -11.87500000000000200, 0.0000000000000000000, 0.5000000000000000000 ) ) ;
#31 = DIRECTION ( 'NONE',  ( 0.0000000000000000000, 0.0000000000000000000, 1.000000000000000000 ) ) ;
#32 = AXIS2_PLACEMENT_3D ( 'NONE', #124, #134, #42 ) ;
#33 = DIRECTION ( 'NONE',  ( -0.0000000000000000000, -0.0000000000000000000, -1.000000000000000000 ) ) ;
#34 = APPROVAL_PERSON_ORGANIZATION ( #169, #99, #98 ) ;
#35 = AXIS2_PLACEMENT_3D ( 'NONE', #162, #73, #150 ) ;
#36 = ORIENTED_EDGE ( 'NONE', *, *, #13, .T. ) ;
#37 = FACE_OUTER_BOUND ( 'NONE', #65, .T. ) ;
#38 = PERSON_AND_ORGANIZATION ( #109, #40 ) ;
#39 = CC_DESIGN_SECURITY_CLASSIFICATION ( #164, ( #131 ) ) ;
#40 = ORGANIZATION ( 'UNSPECIFIED', 'UNSPECIFIED', '' ) ;
#41 = PERSON_AND_ORGANIZATION_ROLE ( 'creator' ) ;
#42 = DIRECTION ( 'NONE',  ( 1.000000000000000000, 0.0000000000000000000, -0.0000000000000000000 ) ) ;
#43 = AXIS2_PLACEMENT_3D ( 'NONE', #151, #64, #137 ) ;
#44 = VECTOR ( 'NONE', #5, 1000.000000000000000 ) ;
#45 = CALENDAR_DATE ( 2017, 12, 4 ) ;
#46 = EDGE_CURVE ( 'NONE', #62, #97, #87, .T. ) ;
#47 = PERSON_AND_ORGANIZATION ( #109, #40 ) ;
#48 = DIRECTION ( 'NONE',  ( 0.0000000000000000000, 0.0000000000000000000, 1.000000000000000000 ) ) ;
#49 = MANIFOLD_SOLID_BREP ( 'Boss-Extrude1', #138 ) ;
#50 = CIRCLE ( 'NONE', #21, 11.87500000000000200 ) ;
#51 = PERSON_AND_ORGANIZATION ( #109, #40 ) ;
#52 = PRODUCT_RELATED_PRODUCT_CATEGORY ( 'detail', '', ( #8 ) ) ;
#53 = DATE_AND_TIME ( #76, #91 ) ;
#54 = VERTEX_POINT ( 'NONE', #173 ) ;
#55 = CARTESIAN_POINT ( 'NONE',  ( 0.0000000000000000000, 0.0000000000000000000, 0.5000000000000000000 ) ) ;
#56 = EDGE_CURVE ( 'NONE', #62, #54, #167, .T. ) ;
#57 = COORDINATED_UNIVERSAL_TIME_OFFSET ( 5, 0, .BEHIND. ) ;
#58 = EDGE_CURVE ( 'NONE', #54, #23, #118, .T. ) ;
#59 = APPLICATION_PROTOCOL_DEFINITION ( 'international standard', 'config_control_design', 1994, #171 ) ;
#60 = EDGE_LOOP ( 'NONE', ( #161, #163, #18, #20 ) ) ;
#61 =( LENGTH_UNIT ( ) NAMED_UNIT ( * ) SI_UNIT ( .MILLI., .METRE. ) );
#62 = VERTEX_POINT ( 'NONE', #113 ) ;
#63 = PLANE ( 'NONE',  #32 ) ;
#64 = DIRECTION ( 'NONE',  ( 0.0000000000000000000, 0.0000000000000000000, 1.000000000000000000 ) ) ;
#65 = EDGE_LOOP ( 'NONE', ( #36, #127 ) ) ;
#66 = EDGE_CURVE ( 'NONE', #97, #23, #114, .T. ) ;
#67 = DESIGN_CONTEXT ( 'detailed design', #129, 'design' ) ;
#68 = ADVANCED_FACE ( 'NONE', ( #79 ), #140, .T. ) ;
#69 = DATE_TIME_ROLE ( 'classification_date' ) ;
#70 =( NAMED_UNIT ( * ) SI_UNIT ( $, .STERADIAN. ) SOLID_ANGLE_UNIT ( ) );
#71 = COORDINATED_UNIVERSAL_TIME_OFFSET ( 5, 0, .BEHIND. ) ;
#72 = AXIS2_PLACEMENT_3D ( 'NONE', #108, #27, #83 ) ;
#73 = DIRECTION ( 'NONE',  ( 0.0000000000000000000, 0.0000000000000000000, 1.000000000000000000 ) ) ;
#74 = DIRECTION ( 'NONE',  ( -1.000000000000000000, 0.0000000000000000000, 0.0000000000000000000 ) ) ;
#75 = COORDINATED_UNIVERSAL_TIME_OFFSET ( 5, 0, .BEHIND. ) ;
#76 = CALENDAR_DATE ( 2017, 12, 4 ) ;
#77 = APPROVAL_DATE_TIME ( #174, #99 ) ;
#78 = UNCERTAINTY_MEASURE_WITH_UNIT (LENGTH_MEASURE( 1.000000000000000100E-005 ), #61, 'distance_accuracy_value', 'NONE');
#79 = FACE_OUTER_BOUND ( 'NONE', #28, .T. ) ;
#80 = LOCAL_TIME ( 13, 56, 24.00000000000000000, #71 ) ;
#81 = CC_DESIGN_PERSON_AND_ORGANIZATION_ASSIGNMENT ( #106, #121, ( #8 ) ) ;
#82 = SECURITY_CLASSIFICATION_LEVEL ( 'unclassified' ) ;
#83 = DIRECTION ( 'NONE',  ( 1.000000000000000000, 0.0000000000000000000, 0.0000000000000000000 ) ) ;
#84 = PLANE ( 'NONE',  #12 ) ;
#85 = CYLINDRICAL_SURFACE ( 'NONE', #152, 11.87500000000000200 ) ;
#86 = DATE_AND_TIME ( #45, #11 ) ;
#87 = LINE ( 'NONE', #166, #146 ) ;
#88 = DATE_AND_TIME ( #153, #156 ) ;
#89 = DIRECTION ( 'NONE',  ( -1.000000000000000000, 0.0000000000000000000, 0.0000000000000000000 ) ) ;
#90 = PRODUCT_DEFINITION ( 'UNKNOWN', '', #131, #67 ) ;
#91 = LOCAL_TIME ( 13, 56, 24.00000000000000000, #57 ) ;
#92 = ORIENTED_EDGE ( 'NONE', *, *, #24, .F. ) ;
#93 = APPROVAL_DATE_TIME ( #88, #130 ) ;
#94 = DIRECTION ( 'NONE',  ( 0.0000000000000000000, 0.0000000000000000000, 1.000000000000000000 ) ) ;
#95 = ORIENTED_EDGE ( 'NONE', *, *, #13, .F. ) ;
#96 = DATE_TIME_ROLE ( 'creation_date' ) ;
#97 = VERTEX_POINT ( 'NONE', #1 ) ;
#98 = APPROVAL_ROLE ( '' ) ;
#99 = APPROVAL ( #155, 'UNSPECIFIED' ) ;
#100 = APPROVAL_ROLE ( '' ) ;
#101 = DIRECTION ( 'NONE',  ( -0.0000000000000000000, -0.0000000000000000000, -1.000000000000000000 ) ) ;
#102 = CARTESIAN_POINT ( 'NONE',  ( -11.87500000000000200, 0.0000000000000000000, -0.5000000000000000000 ) ) ;
#103 = APPLICATION_PROTOCOL_DEFINITION ( 'international standard', 'config_control_design', 1994, #129 ) ;
#104 = APPROVAL_PERSON_ORGANIZATION ( #38, #17, #100 ) ;
#105 = CC_DESIGN_APPROVAL ( #99, ( #90 ) ) ;
#106 = PERSON_AND_ORGANIZATION ( #109, #40 ) ;
#107 = ADVANCED_BREP_SHAPE_REPRESENTATION ( '43635_Default', ( #49, #72 ), #22 ) ;
#108 = CARTESIAN_POINT ( 'NONE',  ( 0.0000000000000000000, 0.0000000000000000000, 0.0000000000000000000 ) ) ;
#109 = PERSON ( 'UNSPECIFIED', 'UNSPECIFIED', 'UNSPECIFIED', ('UNSPECIFIED'), ('UNSPECIFIED'), ('UNSPECIFIED') ) ;
#110 = APPROVAL_STATUS ( 'not_yet_approved' ) ;
#111 = CARTESIAN_POINT ( 'NONE',  ( 0.0000000000000000000, 0.0000000000000000000, 0.5000000000000000000 ) ) ;
#112 = CALENDAR_DATE ( 2017, 12, 4 ) ;
#113 = CARTESIAN_POINT ( 'NONE',  ( 11.87500000000000200, 1.454268073987482300E-015, 0.5000000000000000000 ) ) ;
#114 = CIRCLE ( 'NONE', #35, 11.87500000000000200 ) ;
#115 = CARTESIAN_POINT ( 'NONE',  ( 0.0000000000000000000, 0.0000000000000000000, 0.5000000000000000000 ) ) ;
#116 = PERSON_AND_ORGANIZATION ( #109, #40 ) ;
#117 = CC_DESIGN_PERSON_AND_ORGANIZATION_ASSIGNMENT ( #47, #148, ( #90 ) ) ;
#118 = LINE ( 'NONE', #30, #44 ) ;
#119 = PERSON_AND_ORGANIZATION ( #109, #40 ) ;
#120 = ADVANCED_FACE ( 'NONE', ( #37 ), #84, .T. ) ;
#121 = PERSON_AND_ORGANIZATION_ROLE ( 'design_owner' ) ;
#122 = FACE_OUTER_BOUND ( 'NONE', #60, .T. ) ;
#123 = CC_DESIGN_DATE_AND_TIME_ASSIGNMENT ( #86, #96, ( #90 ) ) ;
#124 = CARTESIAN_POINT ( 'NONE',  ( 0.0000000000000000000, 0.0000000000000000000, -0.5000000000000000000 ) ) ;
#125 = DIRECTION ( 'NONE',  ( 1.000000000000000000, 0.0000000000000000000, 0.0000000000000000000 ) ) ;
#126 = EDGE_LOOP ( 'NONE', ( #92, #142 ) ) ;
#127 = ORIENTED_EDGE ( 'NONE', *, *, #56, .T. ) ;
#128 = DIRECTION ( 'NONE',  ( 1.000000000000000000, 0.0000000000000000000, 0.0000000000000000000 ) ) ;
#129 = APPLICATION_CONTEXT ( 'configuration controlled 3d designs of mechanical parts and assemblies' ) ;
#130 = APPROVAL ( #7, 'UNSPECIFIED' ) ;
#131 = PRODUCT_DEFINITION_FORMATION_WITH_SPECIFIED_SOURCE ( 'ANY', '', #8, .NOT_KNOWN. ) ;
#132 = ADVANCED_FACE ( 'NONE', ( #143 ), #63, .F. ) ;
#133 = MECHANICAL_CONTEXT ( 'NONE', #171, 'mechanical' ) ;
#134 = DIRECTION ( 'NONE',  ( 0.0000000000000000000, 0.0000000000000000000, 1.000000000000000000 ) ) ;
#135 = CARTESIAN_POINT ( 'NONE',  ( 0.0000000000000000000, 0.0000000000000000000, 0.5000000000000000000 ) ) ;
#136 = PRODUCT_DEFINITION_SHAPE ( 'NONE', 'NONE',  #90 ) ;
#137 = DIRECTION ( 'NONE',  ( 1.000000000000000000, 0.0000000000000000000, 0.0000000000000000000 ) ) ;
#138 = CLOSED_SHELL ( 'NONE', ( #6, #68, #120, #132 ) ) ;
#139 = CC_DESIGN_APPROVAL ( #130, ( #131 ) ) ;
#140 = CYLINDRICAL_SURFACE ( 'NONE', #175, 11.87500000000000200 ) ;
#141 = COORDINATED_UNIVERSAL_TIME_OFFSET ( 5, 0, .BEHIND. ) ;
#142 = ORIENTED_EDGE ( 'NONE', *, *, #66, .F. ) ;
#143 = FACE_OUTER_BOUND ( 'NONE', #126, .T. ) ;
#144 = CALENDAR_DATE ( 2017, 12, 4 ) ;
#145 = CARTESIAN_POINT ( 'NONE',  ( 0.0000000000000000000, 0.0000000000000000000, -0.5000000000000000000 ) ) ;
#146 = VECTOR ( 'NONE', #101, 1000.000000000000000 ) ;
#147 = CC_DESIGN_PERSON_AND_ORGANIZATION_ASSIGNMENT ( #3, #41, ( #131 ) ) ;
#148 = PERSON_AND_ORGANIZATION_ROLE ( 'creator' ) ;
#149 = APPROVAL_PERSON_ORGANIZATION ( #51, #130, #26 ) ;
#150 = DIRECTION ( 'NONE',  ( 1.000000000000000000, 0.0000000000000000000, 0.0000000000000000000 ) ) ;
#151 = CARTESIAN_POINT ( 'NONE',  ( 0.0000000000000000000, 0.0000000000000000000, 0.5000000000000000000 ) ) ;
#152 = AXIS2_PLACEMENT_3D ( 'NONE', #55, #33, #89 ) ;
#153 = CALENDAR_DATE ( 2017, 12, 4 ) ;
#154 = ORIENTED_EDGE ( 'NONE', *, *, #24, .T. ) ;
#155 = APPROVAL_STATUS ( 'not_yet_approved' ) ;
#156 = LOCAL_TIME ( 13, 56, 24.00000000000000000, #16 ) ;
#157 = CC_DESIGN_PERSON_AND_ORGANIZATION_ASSIGNMENT ( #119, #170, ( #131 ) ) ;
#158 = PERSON_AND_ORGANIZATION_ROLE ( 'classification_officer' ) ;
#159 = ORIENTED_EDGE ( 'NONE', *, *, #58, .T. ) ;
#160 = DIRECTION ( 'NONE',  ( 1.000000000000000000, 0.0000000000000000000, -0.0000000000000000000 ) ) ;
#161 = ORIENTED_EDGE ( 'NONE', *, *, #56, .F. ) ;
#162 = CARTESIAN_POINT ( 'NONE',  ( 0.0000000000000000000, 0.0000000000000000000, -0.5000000000000000000 ) ) ;
#163 = ORIENTED_EDGE ( 'NONE', *, *, #46, .T. ) ;
#164 = SECURITY_CLASSIFICATION ( '', '', #82 ) ;
#165 = SHAPE_DEFINITION_REPRESENTATION ( #136, #107 ) ;
#166 = CARTESIAN_POINT ( 'NONE',  ( 11.87500000000000200, 1.454268073987482300E-015, 0.5000000000000000000 ) ) ;
#167 = CIRCLE ( 'NONE', #43, 11.87500000000000200 ) ;
#168 = DATE_AND_TIME ( #144, #80 ) ;
#169 = PERSON_AND_ORGANIZATION ( #109, #40 ) ;
#170 = PERSON_AND_ORGANIZATION_ROLE ( 'design_supplier' ) ;
#171 = APPLICATION_CONTEXT ( 'configuration controlled 3d designs of mechanical parts and assemblies' ) ;
#172 = CC_DESIGN_PERSON_AND_ORGANIZATION_ASSIGNMENT ( #116, #158, ( #164 ) ) ;
#173 = CARTESIAN_POINT ( 'NONE',  ( -11.87500000000000200, 0.0000000000000000000, 0.5000000000000000000 ) ) ;
#174 = DATE_AND_TIME ( #112, #19 ) ;
#175 = AXIS2_PLACEMENT_3D ( 'NONE', #111, #14, #74 ) ;
ENDSEC;
END-ISO-10303-21;
