ISO-10303-21;
HEADER;
FILE_DESCRIPTION (( 'STEP AP203' ),
    '1' );
FILE_NAME ('Web Model 68502.STEP',
    '2017-02-01T13:23:06',
    ( '' ),
    ( '' ),
    'SwSTEP 2.0',
    'SolidWorks 2016',
    '' );
FILE_SCHEMA (( 'CONFIG_CONTROL_DESIGN' ));
ENDSEC;

DATA;
#1 = DATE_AND_TIME ( #97, #146 ) ;
#2 = CALENDAR_DATE ( 2017, 1, 2 ) ;
#3 = ORIENTED_EDGE ( 'NONE', *, *, #77, .T. ) ;
#4 = CC_DESIGN_APPROVAL ( #145, ( #115 ) ) ;
#5 = ADVANCED_FACE ( 'NONE', ( #151 ), #132, .F. ) ;
#6 = AXIS2_PLACEMENT_3D ( 'NONE', #60, #131, #160 ) ;
#7 = APPROVAL_DATE_TIME ( #174, #165 ) ;
#8 = ORIENTED_EDGE ( 'NONE', *, *, #107, .T. ) ;
#9 = DIRECTION ( 'NONE',  ( -1.000000000000000000, 0.0000000000000000000, 0.0000000000000000000 ) ) ;
#10 = DIRECTION ( 'NONE',  ( 1.000000000000000000, 0.0000000000000000000, 0.0000000000000000000 ) ) ;
#11 = DIRECTION ( 'NONE',  ( 0.0000000000000000000, 0.0000000000000000000, 1.000000000000000000 ) ) ;
#12 = COORDINATED_UNIVERSAL_TIME_OFFSET ( 5, 0, .BEHIND. ) ;
#13 = AXIS2_PLACEMENT_3D ( 'NONE', #14, #134, #26 ) ;
#14 = CARTESIAN_POINT ( 'NONE',  ( 0.0000000000000000000, 0.0000000000000000000, 0.0000000000000000000 ) ) ;
#15 = CC_DESIGN_APPROVAL ( #165, ( #138 ) ) ;
#16 = CALENDAR_DATE ( 2017, 1, 2 ) ;
#17 = CC_DESIGN_PERSON_AND_ORGANIZATION_ASSIGNMENT ( #36, #80, ( #54 ) ) ;
#18 = EDGE_CURVE ( 'NONE', #71, #25, #66, .T. ) ;
#19 = APPLICATION_PROTOCOL_DEFINITION ( 'international standard', 'config_control_design', 1994, #159 ) ;
#20 = ORIENTED_EDGE ( 'NONE', *, *, #93, .F. ) ;
#21 = CC_DESIGN_SECURITY_CLASSIFICATION ( #115, ( #138 ) ) ;
#22 = DIRECTION ( 'NONE',  ( 1.000000000000000000, 0.0000000000000000000, 0.0000000000000000000 ) ) ;
#23 = CARTESIAN_POINT ( 'NONE',  ( 15.00000000000000000, 1.836970198721029600E-015, 3.000000000000000000 ) ) ;
#24 = SHAPE_DEFINITION_REPRESENTATION ( #150, #148 ) ;
#25 = VERTEX_POINT ( 'NONE', #73 ) ;
#26 = DIRECTION ( 'NONE',  ( 1.000000000000000000, 0.0000000000000000000, 0.0000000000000000000 ) ) ;
#27 = COORDINATED_UNIVERSAL_TIME_OFFSET ( 5, 0, .BEHIND. ) ;
#28 = CC_DESIGN_PERSON_AND_ORGANIZATION_ASSIGNMENT ( #67, #31, ( #121 ) ) ;
#29 =( LENGTH_UNIT ( ) NAMED_UNIT ( * ) SI_UNIT ( .MILLI., .METRE. ) );
#30 = COORDINATED_UNIVERSAL_TIME_OFFSET ( 5, 0, .BEHIND. ) ;
#31 = PERSON_AND_ORGANIZATION_ROLE ( 'creator' ) ;
#32 = LOCAL_TIME ( 8, 23, 6.000000000000000000, #172 ) ;
#33 = CARTESIAN_POINT ( 'NONE',  ( 0.0000000000000000000, 0.0000000000000000000, 0.0000000000000000000 ) ) ;
#34 = AXIS2_PLACEMENT_3D ( 'NONE', #87, #162, #9 ) ;
#35 = ORIENTED_EDGE ( 'NONE', *, *, #18, .T. ) ;
#36 = PERSON_AND_ORGANIZATION ( #110, #109 ) ;
#37 = CARTESIAN_POINT ( 'NONE',  ( 0.0000000000000000000, 0.0000000000000000000, 3.000000000000000000 ) ) ;
#38 = PERSON_AND_ORGANIZATION ( #110, #109 ) ;
#39 = EDGE_LOOP ( 'NONE', ( #43, #170 ) ) ;
#40 =( NAMED_UNIT ( * ) SI_UNIT ( $, .STERADIAN. ) SOLID_ANGLE_UNIT ( ) );
#41 = PERSON_AND_ORGANIZATION ( #110, #109 ) ;
#42 = PRODUCT_RELATED_PRODUCT_CATEGORY ( 'detail', '', ( #54 ) ) ;
#43 = ORIENTED_EDGE ( 'NONE', *, *, #152, .F. ) ;
#44 = LOCAL_TIME ( 8, 23, 6.000000000000000000, #27 ) ;
#45 =( GEOMETRIC_REPRESENTATION_CONTEXT ( 3 ) GLOBAL_UNCERTAINTY_ASSIGNED_CONTEXT ( ( #96 ) ) GLOBAL_UNIT_ASSIGNED_CONTEXT ( ( #29, #122, #40 ) ) REPRESENTATION_CONTEXT ( 'NONE', 'WORKASPACE' ) );
#46 = APPROVAL_ROLE ( '' ) ;
#47 = APPROVAL_ROLE ( '' ) ;
#48 = CC_DESIGN_PERSON_AND_ORGANIZATION_ASSIGNMENT ( #61, #111, ( #138 ) ) ;
#49 = VECTOR ( 'NONE', #147, 1000.000000000000000 ) ;
#50 = CARTESIAN_POINT ( 'NONE',  ( 0.0000000000000000000, 0.0000000000000000000, 3.000000000000000000 ) ) ;
#51 = DIRECTION ( 'NONE',  ( 1.000000000000000000, 0.0000000000000000000, 0.0000000000000000000 ) ) ;
#52 = ORIENTED_EDGE ( 'NONE', *, *, #18, .F. ) ;
#53 = CC_DESIGN_DATE_AND_TIME_ASSIGNMENT ( #1, #142, ( #121 ) ) ;
#54 = PRODUCT ( 'Web Model 68502', 'Web Model 68502', '', ( #139 ) ) ;
#55 = VERTEX_POINT ( 'NONE', #103 ) ;
#56 = CC_DESIGN_APPROVAL ( #156, ( #121 ) ) ;
#57 = APPROVAL_DATE_TIME ( #140, #145 ) ;
#58 = APPLICATION_CONTEXT ( 'configuration controlled 3d designs of mechanical parts and assemblies' ) ;
#59 = APPROVAL_PERSON_ORGANIZATION ( #91, #145, #105 ) ;
#60 = CARTESIAN_POINT ( 'NONE',  ( 0.0000000000000000000, 0.0000000000000000000, 3.000000000000000000 ) ) ;
#61 = PERSON_AND_ORGANIZATION ( #110, #109 ) ;
#62 = CARTESIAN_POINT ( 'NONE',  ( 0.0000000000000000000, 0.0000000000000000000, 0.0000000000000000000 ) ) ;
#63 = CARTESIAN_POINT ( 'NONE',  ( -15.00000000000000000, 0.0000000000000000000, 3.000000000000000000 ) ) ;
#64 = CIRCLE ( 'NONE', #82, 15.00000000000000000 ) ;
#65 = DATE_AND_TIME ( #169, #99 ) ;
#66 = LINE ( 'NONE', #173, #49 ) ;
#67 = PERSON_AND_ORGANIZATION ( #110, #109 ) ;
#68 = PERSON_AND_ORGANIZATION ( #110, #109 ) ;
#69 = DIRECTION ( 'NONE',  ( 1.000000000000000000, 0.0000000000000000000, 0.0000000000000000000 ) ) ;
#70 = PERSON_AND_ORGANIZATION_ROLE ( 'classification_officer' ) ;
#71 = VERTEX_POINT ( 'NONE', #23 ) ;
#72 = CARTESIAN_POINT ( 'NONE',  ( 0.0000000000000000000, 0.0000000000000000000, 0.0000000000000000000 ) ) ;
#73 = CARTESIAN_POINT ( 'NONE',  ( 15.00000000000000000, 1.836970198721029600E-015, 0.0000000000000000000 ) ) ;
#74 = DIRECTION ( 'NONE',  ( 1.000000000000000000, 0.0000000000000000000, -0.0000000000000000000 ) ) ;
#75 = ADVANCED_FACE ( 'NONE', ( #153 ), #114, .T. ) ;
#76 = DESIGN_CONTEXT ( 'detailed design', #159, 'design' ) ;
#77 = EDGE_CURVE ( 'NONE', #55, #71, #64, .T. ) ;
#78 = EDGE_LOOP ( 'NONE', ( #3, #104 ) ) ;
#79 = CALENDAR_DATE ( 2017, 1, 2 ) ;
#80 = PERSON_AND_ORGANIZATION_ROLE ( 'design_owner' ) ;
#81 = LINE ( 'NONE', #63, #133 ) ;
#82 = AXIS2_PLACEMENT_3D ( 'NONE', #117, #130, #51 ) ;
#83 = DIRECTION ( 'NONE',  ( 0.0000000000000000000, 0.0000000000000000000, 1.000000000000000000 ) ) ;
#84 = FACE_OUTER_BOUND ( 'NONE', #167, .T. ) ;
#85 = EDGE_CURVE ( 'NONE', #71, #55, #123, .T. ) ;
#86 = PERSON_AND_ORGANIZATION ( #110, #109 ) ;
#87 = CARTESIAN_POINT ( 'NONE',  ( 0.0000000000000000000, 0.0000000000000000000, 3.000000000000000000 ) ) ;
#88 = APPROVAL_STATUS ( 'not_yet_approved' ) ;
#89 = DIRECTION ( 'NONE',  ( 1.000000000000000000, 0.0000000000000000000, -0.0000000000000000000 ) ) ;
#90 = AXIS2_PLACEMENT_3D ( 'NONE', #62, #11, #10 ) ;
#91 = PERSON_AND_ORGANIZATION ( #110, #109 ) ;
#92 = ADVANCED_FACE ( 'NONE', ( #84 ), #175, .T. ) ;
#93 = EDGE_CURVE ( 'NONE', #55, #144, #81, .T. ) ;
#94 = APPROVAL_STATUS ( 'not_yet_approved' ) ;
#95 = APPLICATION_PROTOCOL_DEFINITION ( 'international standard', 'config_control_design', 1994, #58 ) ;
#96 = UNCERTAINTY_MEASURE_WITH_UNIT (LENGTH_MEASURE( 1.000000000000000100E-005 ), #29, 'distance_accuracy_value', 'NONE');
#97 = CALENDAR_DATE ( 2017, 1, 2 ) ;
#98 = CIRCLE ( 'NONE', #13, 15.00000000000000000 ) ;
#99 = LOCAL_TIME ( 8, 23, 6.000000000000000000, #137 ) ;
#100 = AXIS2_PLACEMENT_3D ( 'NONE', #72, #83, #74 ) ;
#101 = DIRECTION ( 'NONE',  ( 0.0000000000000000000, 0.0000000000000000000, 1.000000000000000000 ) ) ;
#102 = APPROVAL_DATE_TIME ( #118, #156 ) ;
#103 = CARTESIAN_POINT ( 'NONE',  ( -15.00000000000000000, 0.0000000000000000000, 3.000000000000000000 ) ) ;
#104 = ORIENTED_EDGE ( 'NONE', *, *, #85, .T. ) ;
#105 = APPROVAL_ROLE ( '' ) ;
#106 = CARTESIAN_POINT ( 'NONE',  ( -15.00000000000000000, 0.0000000000000000000, 0.0000000000000000000 ) ) ;
#107 = EDGE_CURVE ( 'NONE', #25, #144, #128, .T. ) ;
#108 = ADVANCED_FACE ( 'NONE', ( #155 ), #149, .T. ) ;
#109 = ORGANIZATION ( 'UNSPECIFIED', 'UNSPECIFIED', '' ) ;
#110 = PERSON ( 'UNSPECIFIED', 'UNSPECIFIED', 'UNSPECIFIED', ('UNSPECIFIED'), ('UNSPECIFIED'), ('UNSPECIFIED') ) ;
#111 = PERSON_AND_ORGANIZATION_ROLE ( 'creator' ) ;
#112 = APPROVAL_PERSON_ORGANIZATION ( #86, #165, #47 ) ;
#113 = CC_DESIGN_PERSON_AND_ORGANIZATION_ASSIGNMENT ( #38, #127, ( #138 ) ) ;
#114 = CYLINDRICAL_SURFACE ( 'NONE', #34, 15.00000000000000000 ) ;
#115 = SECURITY_CLASSIFICATION ( '', '', #157 ) ;
#116 = DIRECTION ( 'NONE',  ( -0.0000000000000000000, -0.0000000000000000000, -1.000000000000000000 ) ) ;
#117 = CARTESIAN_POINT ( 'NONE',  ( 0.0000000000000000000, 0.0000000000000000000, 3.000000000000000000 ) ) ;
#118 = DATE_AND_TIME ( #16, #154 ) ;
#119 = DIRECTION ( 'NONE',  ( 0.0000000000000000000, 0.0000000000000000000, 1.000000000000000000 ) ) ;
#120 = ORIENTED_EDGE ( 'NONE', *, *, #152, .T. ) ;
#121 = PRODUCT_DEFINITION ( 'UNKNOWN', '', #138, #76 ) ;
#122 =( NAMED_UNIT ( * ) PLANE_ANGLE_UNIT ( ) SI_UNIT ( $, .RADIAN. ) );
#123 = CIRCLE ( 'NONE', #163, 15.00000000000000000 ) ;
#124 = CC_DESIGN_PERSON_AND_ORGANIZATION_ASSIGNMENT ( #41, #70, ( #115 ) ) ;
#125 = APPROVAL_STATUS ( 'not_yet_approved' ) ;
#126 = CLOSED_SHELL ( 'NONE', ( #75, #92, #108, #5 ) ) ;
#127 = PERSON_AND_ORGANIZATION_ROLE ( 'design_supplier' ) ;
#128 = CIRCLE ( 'NONE', #90, 15.00000000000000000 ) ;
#129 = AXIS2_PLACEMENT_3D ( 'NONE', #33, #141, #69 ) ;
#130 = DIRECTION ( 'NONE',  ( 0.0000000000000000000, 0.0000000000000000000, 1.000000000000000000 ) ) ;
#131 = DIRECTION ( 'NONE',  ( -0.0000000000000000000, -0.0000000000000000000, -1.000000000000000000 ) ) ;
#132 = PLANE ( 'NONE',  #100 ) ;
#133 = VECTOR ( 'NONE', #116, 1000.000000000000000 ) ;
#134 = DIRECTION ( 'NONE',  ( 0.0000000000000000000, 0.0000000000000000000, 1.000000000000000000 ) ) ;
#135 = APPROVAL_PERSON_ORGANIZATION ( #68, #156, #46 ) ;
#136 = ORIENTED_EDGE ( 'NONE', *, *, #85, .F. ) ;
#137 = COORDINATED_UNIVERSAL_TIME_OFFSET ( 5, 0, .BEHIND. ) ;
#138 = PRODUCT_DEFINITION_FORMATION_WITH_SPECIFIED_SOURCE ( 'ANY', '', #54, .NOT_KNOWN. ) ;
#139 = MECHANICAL_CONTEXT ( 'NONE', #58, 'mechanical' ) ;
#140 = DATE_AND_TIME ( #2, #44 ) ;
#141 = DIRECTION ( 'NONE',  ( 0.0000000000000000000, 0.0000000000000000000, 1.000000000000000000 ) ) ;
#142 = DATE_TIME_ROLE ( 'creation_date' ) ;
#143 = DATE_TIME_ROLE ( 'classification_date' ) ;
#144 = VERTEX_POINT ( 'NONE', #106 ) ;
#145 = APPROVAL ( #88, 'UNSPECIFIED' ) ;
#146 = LOCAL_TIME ( 8, 23, 6.000000000000000000, #30 ) ;
#147 = DIRECTION ( 'NONE',  ( -0.0000000000000000000, -0.0000000000000000000, -1.000000000000000000 ) ) ;
#148 = ADVANCED_BREP_SHAPE_REPRESENTATION ( 'Web Model 68502', ( #166, #129 ), #45 ) ;
#149 = PLANE ( 'NONE',  #171 ) ;
#150 = PRODUCT_DEFINITION_SHAPE ( 'NONE', 'NONE',  #121 ) ;
#151 = FACE_OUTER_BOUND ( 'NONE', #39, .T. ) ;
#152 = EDGE_CURVE ( 'NONE', #144, #25, #98, .T. ) ;
#153 = FACE_OUTER_BOUND ( 'NONE', #158, .T. ) ;
#154 = LOCAL_TIME ( 8, 23, 6.000000000000000000, #12 ) ;
#155 = FACE_OUTER_BOUND ( 'NONE', #78, .T. ) ;
#156 = APPROVAL ( #94, 'UNSPECIFIED' ) ;
#157 = SECURITY_CLASSIFICATION_LEVEL ( 'unclassified' ) ;
#158 = EDGE_LOOP ( 'NONE', ( #136, #35, #8, #20 ) ) ;
#159 = APPLICATION_CONTEXT ( 'configuration controlled 3d designs of mechanical parts and assemblies' ) ;
#160 = DIRECTION ( 'NONE',  ( -1.000000000000000000, 0.0000000000000000000, 0.0000000000000000000 ) ) ;
#161 = ORIENTED_EDGE ( 'NONE', *, *, #77, .F. ) ;
#162 = DIRECTION ( 'NONE',  ( -0.0000000000000000000, -0.0000000000000000000, -1.000000000000000000 ) ) ;
#163 = AXIS2_PLACEMENT_3D ( 'NONE', #37, #101, #22 ) ;
#164 = CC_DESIGN_DATE_AND_TIME_ASSIGNMENT ( #65, #143, ( #115 ) ) ;
#165 = APPROVAL ( #125, 'UNSPECIFIED' ) ;
#166 = MANIFOLD_SOLID_BREP ( 'Extrude1', #126 ) ;
#167 = EDGE_LOOP ( 'NONE', ( #52, #161, #168, #120 ) ) ;
#168 = ORIENTED_EDGE ( 'NONE', *, *, #93, .T. ) ;
#169 = CALENDAR_DATE ( 2017, 1, 2 ) ;
#170 = ORIENTED_EDGE ( 'NONE', *, *, #107, .F. ) ;
#171 = AXIS2_PLACEMENT_3D ( 'NONE', #50, #119, #89 ) ;
#172 = COORDINATED_UNIVERSAL_TIME_OFFSET ( 5, 0, .BEHIND. ) ;
#173 = CARTESIAN_POINT ( 'NONE',  ( 15.00000000000000000, 1.836970198721029600E-015, 3.000000000000000000 ) ) ;
#174 = DATE_AND_TIME ( #79, #32 ) ;
#175 = CYLINDRICAL_SURFACE ( 'NONE', #6, 15.00000000000000000 ) ;
ENDSEC;
END-ISO-10303-21;
