ISO-10303-21;
HEADER;
FILE_DESCRIPTION (( 'STEP AP203' ),
    '1' );
FILE_NAME ('4873-E0W.STEP',
    '2016-05-18T19:51:12',
    ( 'admin' ),
    ( '' ),
    'SwSTEP 2.0',
    'SolidWorks 2016',
    '' );
FILE_SCHEMA (( 'CONFIG_CONTROL_DESIGN' ));
ENDSEC;

DATA;
#1 = VERTEX_POINT ( 'NONE', #265 ) ;
#2 = CALENDAR_DATE ( 2016, 18, 5 ) ;
#3 = LINE ( 'NONE', #130, #32 ) ;
#4 = EDGE_LOOP ( 'NONE', ( #290, #273, #171 ) ) ;
#5 = LINE ( 'NONE', #125, #274 ) ;
#6 = DIRECTION ( 'NONE',  ( 0.0000000000000000000, 0.7071067811865470200, 0.7071067811865481300 ) ) ;
#7 = ORIENTED_EDGE ( 'NONE', *, *, #241, .T. ) ;
#8 = DIRECTION ( 'NONE',  ( 1.000000000000000000, -0.0000000000000000000, 0.0000000000000000000 ) ) ;
#9 = DATE_AND_TIME ( #69, #138 ) ;
#10 = CARTESIAN_POINT ( 'NONE',  ( 1.524685264938454600E-015, -0.7219607748204083200, -12.44999999999999900 ) ) ;
#11 = CC_DESIGN_APPROVAL ( #13, ( #308 ) ) ;
#12 = EDGE_CURVE ( 'NONE', #260, #164, #229, .T. ) ;
#13 = APPROVAL ( #192, 'UNSPECIFIED' ) ;
#14 = CIRCLE ( 'NONE', #47, 55.70000000000000300 ) ;
#15 = CARTESIAN_POINT ( 'NONE',  ( 0.0000000000000000000, 57.20000000000000300, 0.0000000000000000000 ) ) ;
#16 = PERSON_AND_ORGANIZATION ( #117, #46 ) ;
#17 = ORIENTED_EDGE ( 'NONE', *, *, #73, .T. ) ;
#18 = VERTEX_POINT ( 'NONE', #102 ) ;
#19 = LINE ( 'NONE', #267, #285 ) ;
#20 = AXIS2_PLACEMENT_3D ( 'NONE', #314, #98, #286 ) ;
#21 = CC_DESIGN_PERSON_AND_ORGANIZATION_ASSIGNMENT ( #48, #174, ( #308 ) ) ;
#22 = ORIENTED_EDGE ( 'NONE', *, *, #168, .T. ) ;
#23 =( NAMED_UNIT ( * ) PLANE_ANGLE_UNIT ( ) SI_UNIT ( $, .RADIAN. ) );
#24 = CC_DESIGN_PERSON_AND_ORGANIZATION_ASSIGNMENT ( #316, #136, ( #308 ) ) ;
#25 = DIRECTION ( 'NONE',  ( -0.0000000000000000000, -1.000000000000000000, -1.836649773963074400E-016 ) ) ;
#26 = FACE_OUTER_BOUND ( 'NONE', #217, .T. ) ;
#27 = EDGE_CURVE ( 'NONE', #260, #166, #252, .T. ) ;
#28 = DIRECTION ( 'NONE',  ( 0.0000000000000000000, 1.828774748770730500E-016, -1.000000000000000000 ) ) ;
#29 = DIRECTION ( 'NONE',  ( 0.0000000000000000000, -0.7071067811864983900, -0.7071067811865966400 ) ) ;
#30 = CARTESIAN_POINT ( 'NONE',  ( 0.0000000000000000000, 2.659231908177980900, 7.639052344015095600E-016 ) ) ;
#31 = LOCAL_TIME ( 15, 51, 12.00000000000000000, #96 ) ;
#32 = VECTOR ( 'NONE', #29, 1000.000000000000000 ) ;
#33 =( NAMED_UNIT ( * ) SI_UNIT ( $, .STERADIAN. ) SOLID_ANGLE_UNIT ( ) );
#34 = CARTESIAN_POINT ( 'NONE',  ( 0.0000000000000000000, 98.50000000000000000, 0.0000000000000000000 ) ) ;
#35 = APPLICATION_CONTEXT ( 'configuration controlled 3d designs of mechanical parts and assemblies' ) ;
#36 = AXIS2_PLACEMENT_3D ( 'NONE', #255, #284, #216 ) ;
#37 = SPHERICAL_SURFACE ( 'NONE', #44, 100.0000000000000000 ) ;
#38 =( GEOMETRIC_REPRESENTATION_CONTEXT ( 3 ) GLOBAL_UNCERTAINTY_ASSIGNED_CONTEXT ( ( #153 ) ) GLOBAL_UNIT_ASSIGNED_CONTEXT ( ( #317, #23, #33 ) ) REPRESENTATION_CONTEXT ( 'NONE', 'WORKASPACE' ) );
#39 = MANIFOLD_SOLID_BREP ( '4873-001-2-solid1', #250 ) ;
#40 = ORIENTED_EDGE ( 'NONE', *, *, #256, .F. ) ;
#41 = ORIENTED_EDGE ( 'NONE', *, *, #148, .F. ) ;
#42 = CALENDAR_DATE ( 2016, 18, 5 ) ;
#43 = EDGE_CURVE ( 'NONE', #18, #88, #3, .T. ) ;
#44 = AXIS2_PLACEMENT_3D ( 'NONE', #235, #146, #114 ) ;
#45 = ADVANCED_FACE ( 'NONE', ( #187 ), #221, .T. ) ;
#46 = ORGANIZATION ( 'UNSPECIFIED', 'UNSPECIFIED', '' ) ;
#47 = AXIS2_PLACEMENT_3D ( 'NONE', #215, #121, #305 ) ;
#48 = PERSON_AND_ORGANIZATION ( #117, #46 ) ;
#49 = DIRECTION ( 'NONE',  ( 1.000000000000000000, -0.0000000000000000000, 0.0000000000000000000 ) ) ;
#50 = CARTESIAN_POINT ( 'NONE',  ( 0.0000000000000000000, -1.500000000000000000, 0.0000000000000000000 ) ) ;
#51 = ORIENTED_EDGE ( 'NONE', *, *, #43, .F. ) ;
#52 = SPHERICAL_SURFACE ( 'NONE', #210, 55.70000000000000300 ) ;
#53 = CARTESIAN_POINT ( 'NONE',  ( 0.0000000000000000000, -1.500000000000000000, 0.0000000000000000000 ) ) ;
#54 = COORDINATED_UNIVERSAL_TIME_OFFSET ( 5, 0, .BEHIND. ) ;
#55 = CARTESIAN_POINT ( 'NONE',  ( 0.0000000000000000000, 1.500000000000001300, -1.364078057659970400E-014 ) ) ;
#56 = CARTESIAN_POINT ( 'NONE',  ( 0.0000000000000000000, 2.909231908177972500, 8.098214787505848800E-016 ) ) ;
#57 = EDGE_CURVE ( 'NONE', #166, #261, #293, .T. ) ;
#58 = APPLICATION_CONTEXT ( 'configuration controlled 3d designs of mechanical parts and assemblies' ) ;
#59 = ORIENTED_EDGE ( 'NONE', *, *, #91, .F. ) ;
#60 = APPROVAL_ROLE ( '' ) ;
#61 = FACE_OUTER_BOUND ( 'NONE', #145, .T. ) ;
#62 = DIRECTION ( 'NONE',  ( 0.0000000000000000000, 1.707404996040164500E-016, -1.000000000000000000 ) ) ;
#63 = LOCAL_TIME ( 15, 51, 12.00000000000000000, #129 ) ;
#64 = ORIENTED_EDGE ( 'NONE', *, *, #148, .T. ) ;
#65 = ADVANCED_FACE ( 'NONE', ( #159 ), #300, .F. ) ;
#66 = FACE_OUTER_BOUND ( 'NONE', #203, .T. ) ;
#67 = APPROVAL ( #86, 'UNSPECIFIED' ) ;
#68 = AXIS2_PLACEMENT_3D ( 'NONE', #34, #101, #182 ) ;
#69 = CALENDAR_DATE ( 2016, 18, 5 ) ;
#70 = ORIENTED_EDGE ( 'NONE', *, *, #199, .T. ) ;
#71 = CC_DESIGN_PERSON_AND_ORGANIZATION_ASSIGNMENT ( #248, #111, ( #141 ) ) ;
#72 = DIRECTION ( 'NONE',  ( 0.0000000000000000000, 1.707404996040164500E-016, -1.000000000000000000 ) ) ;
#73 = EDGE_CURVE ( 'NONE', #137, #261, #228, .T. ) ;
#74 = CIRCLE ( 'NONE', #230, 12.44999999999997300 ) ;
#75 = DIRECTION ( 'NONE',  ( -0.0000000000000000000, -1.000000000000000000, -1.836649773963074400E-016 ) ) ;
#76 = AXIS2_PLACEMENT_3D ( 'NONE', #200, #95, #253 ) ;
#77 = CARTESIAN_POINT ( 'NONE',  ( 1.555301434917138400E-015, 2.659231908177978700, 12.69999999999999900 ) ) ;
#78 = PRODUCT_DEFINITION_SHAPE ( 'NONE', 'NONE',  #87 ) ;
#79 = DIRECTION ( 'NONE',  ( 8.659560562355533100E-017, -0.7071067811864986100, 0.7071067811865964200 ) ) ;
#80 = CARTESIAN_POINT ( 'NONE',  ( 0.0000000000000000000, 2.659231908177980900, 7.639052344015095600E-016 ) ) ;
#81 = PERSON_AND_ORGANIZATION ( #117, #46 ) ;
#82 = DIRECTION ( 'NONE',  ( 0.0000000000000000000, -1.387778780781445700E-016, 1.000000000000000000 ) ) ;
#83 = DIRECTION ( 'NONE',  ( -0.0000000000000000000, -1.000000000000000000, -1.836649773963074400E-016 ) ) ;
#84 = FACE_OUTER_BOUND ( 'NONE', #257, .T. ) ;
#85 = APPLICATION_PROTOCOL_DEFINITION ( 'international standard', 'config_control_design', 1994, #58 ) ;
#86 = APPROVAL_STATUS ( 'not_yet_approved' ) ;
#87 = PRODUCT_DEFINITION ( 'UNKNOWN', '', #308, #180 ) ;
#88 = VERTEX_POINT ( 'NONE', #99 ) ;
#89 = DIRECTION ( 'NONE',  ( 0.0000000000000000000, 1.000000000000000000, 1.836649773963074400E-016 ) ) ;
#90 = VECTOR ( 'NONE', #183, 1000.000000000000000 ) ;
#91 = EDGE_CURVE ( 'NONE', #88, #137, #19, .T. ) ;
#92 = ADVANCED_FACE ( 'NONE', ( #84 ), #281, .T. ) ;
#93 = ADVANCED_BREP_SHAPE_REPRESENTATION ( '4873-E0W', ( #39, #110 ), #38 ) ;
#94 = DIRECTION ( 'NONE',  ( 0.0000000000000000000, 1.000000000000000000, 1.836649773963074400E-016 ) ) ;
#95 = DIRECTION ( 'NONE',  ( -1.000000000000000000, -2.249247266838588900E-032, 1.224646799147353200E-016 ) ) ;
#96 = COORDINATED_UNIVERSAL_TIME_OFFSET ( 5, 0, .BEHIND. ) ;
#97 = DIRECTION ( 'NONE',  ( -0.0000000000000000000, -1.000000000000000000, -1.836649773963074400E-016 ) ) ;
#98 = DIRECTION ( 'NONE',  ( -0.0000000000000000000, -1.000000000000000000, -1.836649773963074400E-016 ) ) ;
#99 = CARTESIAN_POINT ( 'NONE',  ( 0.0000000000000000000, 2.659231908177983200, -12.69999999999999900 ) ) ;
#100 = CIRCLE ( 'NONE', #271, 12.44999999999997300 ) ;
#101 = DIRECTION ( 'NONE',  ( 1.000000000000000000, -0.0000000000000000000, 0.0000000000000000000 ) ) ;
#102 = CARTESIAN_POINT ( 'NONE',  ( 0.0000000000000000000, 2.909231908177974700, -12.44999999999997300 ) ) ;
#103 = DIRECTION ( 'NONE',  ( 8.659560562354939000E-017, 0.7071067811865472400, -0.7071067811865479100 ) ) ;
#104 = LOCAL_TIME ( 15, 51, 12.00000000000000000, #175 ) ;
#105 = CARTESIAN_POINT ( 'NONE',  ( 0.0000000000000000000, -0.7219607748204106600, 1.428985567060498400E-016 ) ) ;
#106 = CC_DESIGN_APPROVAL ( #211, ( #141 ) ) ;
#107 = AXIS2_PLACEMENT_3D ( 'NONE', #186, #234, #231 ) ;
#108 = MECHANICAL_CONTEXT ( 'NONE', #58, 'mechanical' ) ;
#109 = CARTESIAN_POINT ( 'NONE',  ( 0.0000000000000000000, -0.7219607748204106600, 1.428985567060498400E-016 ) ) ;
#110 = AXIS2_PLACEMENT_3D ( 'NONE', #189, #134, #243 ) ;
#111 = PERSON_AND_ORGANIZATION_ROLE ( 'classification_officer' ) ;
#112 = CIRCLE ( 'NONE', #120, 12.69999999999999900 ) ;
#113 = CARTESIAN_POINT ( 'NONE',  ( 1.539993349927795200E-015, 2.909231908177970300, 12.44999999999997300 ) ) ;
#114 = DIRECTION ( 'NONE',  ( 0.0000000000000000000, -1.387778780781445700E-016, 1.000000000000000000 ) ) ;
#115 = APPROVAL_DATE_TIME ( #185, #13 ) ;
#116 = ADVANCED_FACE ( 'NONE', ( #149 ), #135, .T. ) ;
#117 = PERSON ( 'UNSPECIFIED', 'UNSPECIFIED', 'UNSPECIFIED', ('UNSPECIFIED'), ('UNSPECIFIED'), ('UNSPECIFIED') ) ;
#118 = EDGE_LOOP ( 'NONE', ( #142, #64, #17, #306 ) ) ;
#119 = CIRCLE ( 'NONE', #68, 100.0000000000000000 ) ;
#120 = AXIS2_PLACEMENT_3D ( 'NONE', #80, #133, #292 ) ;
#121 = DIRECTION ( 'NONE',  ( -1.000000000000000000, 0.0000000000000000000, 0.0000000000000000000 ) ) ;
#122 = APPROVAL_PERSON_ORGANIZATION ( #193, #13, #244 ) ;
#123 = DIRECTION ( 'NONE',  ( -0.0000000000000000000, -1.000000000000000000, -1.836649773963074400E-016 ) ) ;
#124 = CARTESIAN_POINT ( 'NONE',  ( 0.0000000000000000000, -0.4719607748204107700, 1.888148010551266800E-016 ) ) ;
#125 = CARTESIAN_POINT ( 'NONE',  ( 0.0000000000000000000, -0.7219607748204128800, 12.44999999999999900 ) ) ;
#126 = AXIS2_PLACEMENT_3D ( 'NONE', #204, #89, #246 ) ;
#127 = CIRCLE ( 'NONE', #76, 100.0000000000000000 ) ;
#128 = CARTESIAN_POINT ( 'NONE',  ( 0.0000000000000000000, -0.7219607748204106600, 1.428985567060498400E-016 ) ) ;
#129 = COORDINATED_UNIVERSAL_TIME_OFFSET ( 5, 0, .BEHIND. ) ;
#130 = CARTESIAN_POINT ( 'NONE',  ( 0.0000000000000000000, 2.659231908177983200, -12.69999999999999900 ) ) ;
#131 = EDGE_CURVE ( 'NONE', #296, #1, #202, .T. ) ;
#132 = ORIENTED_EDGE ( 'NONE', *, *, #280, .T. ) ;
#133 = DIRECTION ( 'NONE',  ( -0.0000000000000000000, -1.000000000000000000, -1.836649773963074400E-016 ) ) ;
#134 = DIRECTION ( 'NONE',  ( 0.0000000000000000000, 0.0000000000000000000, 1.000000000000000000 ) ) ;
#135 = CONICAL_SURFACE ( 'NONE', #195, 12.69999999999999900, 0.7853981633975176700 ) ;
#136 = PERSON_AND_ORGANIZATION_ROLE ( 'design_supplier' ) ;
#137 = VERTEX_POINT ( 'NONE', #156 ) ;
#138 = LOCAL_TIME ( 15, 51, 12.00000000000000000, #206 ) ;
#139 = CARTESIAN_POINT ( 'NONE',  ( 1.555301434917138400E-015, -1.500000000000002400, 12.69999999999999900 ) ) ;
#140 = PERSON_AND_ORGANIZATION_ROLE ( 'design_owner' ) ;
#141 = SECURITY_CLASSIFICATION ( '', '', #295 ) ;
#142 = ORIENTED_EDGE ( 'NONE', *, *, #131, .F. ) ;
#143 = LINE ( 'NONE', #10, #212 ) ;
#144 = AXIS2_PLACEMENT_3D ( 'NONE', #124, #25, #319 ) ;
#145 = EDGE_LOOP ( 'NONE', ( #289, #297, #223, #59 ) ) ;
#146 = DIRECTION ( 'NONE',  ( -1.000000000000000000, -0.0000000000000000000, 0.0000000000000000000 ) ) ;
#147 = CARTESIAN_POINT ( 'NONE',  ( 0.0000000000000000000, 57.20000000000000300, 0.0000000000000000000 ) ) ;
#148 = EDGE_CURVE ( 'NONE', #296, #137, #143, .T. ) ;
#149 = FACE_OUTER_BOUND ( 'NONE', #218, .T. ) ;
#150 = DIRECTION ( 'NONE',  ( -0.0000000000000000000, -1.000000000000000000, -1.836649773963074400E-016 ) ) ;
#151 = ORIENTED_EDGE ( 'NONE', *, *, #131, .T. ) ;
#152 = ORIENTED_EDGE ( 'NONE', *, *, #309, .T. ) ;
#153 = UNCERTAINTY_MEASURE_WITH_UNIT (LENGTH_MEASURE( 1.000000000000000100E-005 ), #317, 'distance_accuracy_value', 'NONE');
#154 = AXIS2_PLACEMENT_3D ( 'NONE', #53, #83, #240 ) ;
#155 = ORIENTED_EDGE ( 'NONE', *, *, #188, .T. ) ;
#156 = CARTESIAN_POINT ( 'NONE',  ( 1.555301434917138400E-015, -0.4719607748204084400, -12.69999999999999900 ) ) ;
#157 = EDGE_LOOP ( 'NONE', ( #272, #191, #269 ) ) ;
#158 = APPROVAL_DATE_TIME ( #227, #211 ) ;
#159 = FACE_OUTER_BOUND ( 'NONE', #4, .T. ) ;
#160 = CC_DESIGN_SECURITY_CLASSIFICATION ( #141, ( #308 ) ) ;
#161 = DIRECTION ( 'NONE',  ( -0.0000000000000000000, -1.000000000000000000, -1.836649773963074400E-016 ) ) ;
#162 = AXIS2_PLACEMENT_3D ( 'NONE', #147, #8, #173 ) ;
#163 = DATE_TIME_ROLE ( 'creation_date' ) ;
#164 = VERTEX_POINT ( 'NONE', #55 ) ;
#165 = DATE_TIME_ROLE ( 'classification_date' ) ;
#166 = VERTEX_POINT ( 'NONE', #263 ) ;
#167 = DIRECTION ( 'NONE',  ( 0.0000000000000000000, 1.245761921706863300E-016, -1.000000000000000000 ) ) ;
#168 = EDGE_CURVE ( 'NONE', #1, #261, #5, .T. ) ;
#169 = APPROVAL_PERSON_ORGANIZATION ( #239, #211, #242 ) ;
#170 = ADVANCED_FACE ( 'NONE', ( #26 ), #196, .T. ) ;
#171 = ORIENTED_EDGE ( 'NONE', *, *, #291, .T. ) ;
#172 = FACE_OUTER_BOUND ( 'NONE', #205, .T. ) ;
#173 = DIRECTION ( 'NONE',  ( 0.0000000000000000000, 1.245761921706863300E-016, -1.000000000000000000 ) ) ;
#174 = PERSON_AND_ORGANIZATION_ROLE ( 'creator' ) ;
#175 = COORDINATED_UNIVERSAL_TIME_OFFSET ( 5, 0, .BEHIND. ) ;
#176 = CC_DESIGN_DATE_AND_TIME_ASSIGNMENT ( #307, #165, ( #141 ) ) ;
#177 = AXIS2_PLACEMENT_3D ( 'NONE', #259, #123, #72 ) ;
#178 = ORIENTED_EDGE ( 'NONE', *, *, #91, .T. ) ;
#179 = FACE_OUTER_BOUND ( 'NONE', #157, .T. ) ;
#180 = DESIGN_CONTEXT ( 'detailed design', #35, 'design' ) ;
#181 = ORIENTED_EDGE ( 'NONE', *, *, #280, .F. ) ;
#182 = DIRECTION ( 'NONE',  ( 0.0000000000000000000, 0.0000000000000000000, -1.000000000000000000 ) ) ;
#183 = DIRECTION ( 'NONE',  ( -0.0000000000000000000, -1.000000000000000000, -1.836649773963074400E-016 ) ) ;
#184 = AXIS2_PLACEMENT_3D ( 'NONE', #105, #287, #28 ) ;
#185 = DATE_AND_TIME ( #254, #323 ) ;
#186 = CARTESIAN_POINT ( 'NONE',  ( 0.0000000000000000000, 57.20000000000000300, 0.0000000000000000000 ) ) ;
#187 = FACE_OUTER_BOUND ( 'NONE', #226, .T. ) ;
#188 = EDGE_CURVE ( 'NONE', #260, #18, #74, .T. ) ;
#189 = CARTESIAN_POINT ( 'NONE',  ( 0.0000000000000000000, 0.0000000000000000000, 0.0000000000000000000 ) ) ;
#190 = CIRCLE ( 'NONE', #36, 12.69999999999999900 ) ;
#191 = ORIENTED_EDGE ( 'NONE', *, *, #12, .T. ) ;
#192 = APPROVAL_STATUS ( 'not_yet_approved' ) ;
#193 = PERSON_AND_ORGANIZATION ( #117, #46 ) ;
#194 = ADVANCED_FACE ( 'NONE', ( #66 ), #262, .T. ) ;
#195 = AXIS2_PLACEMENT_3D ( 'NONE', #30, #75, #62 ) ;
#196 = SPHERICAL_SURFACE ( 'NONE', #249, 100.0000000000000000 ) ;
#197 = CC_DESIGN_PERSON_AND_ORGANIZATION_ASSIGNMENT ( #81, #140, ( #327 ) ) ;
#198 = PERSON_AND_ORGANIZATION ( #117, #46 ) ;
#199 = EDGE_CURVE ( 'NONE', #1, #296, #326, .T. ) ;
#200 = CARTESIAN_POINT ( 'NONE',  ( 0.0000000000000000000, 98.50000000000000000, 0.0000000000000000000 ) ) ;
#201 = ORIENTED_EDGE ( 'NONE', *, *, #43, .T. ) ;
#202 = CIRCLE ( 'NONE', #214, 12.44999999999999900 ) ;
#203 = EDGE_LOOP ( 'NONE', ( #220, #132, #178, #40 ) ) ;
#204 = CARTESIAN_POINT ( 'NONE',  ( 0.0000000000000000000, -0.7219607748204106600, 1.428985567060498400E-016 ) ) ;
#205 = EDGE_LOOP ( 'NONE', ( #315, #151, #7 ) ) ;
#206 = COORDINATED_UNIVERSAL_TIME_OFFSET ( 5, 0, .BEHIND. ) ;
#207 = DIRECTION ( 'NONE',  ( 0.0000000000000000000, 1.878145495644181100E-016, -1.000000000000000000 ) ) ;
#208 = DIRECTION ( 'NONE',  ( -0.0000000000000000000, -1.000000000000000000, -1.836649773963074400E-016 ) ) ;
#209 = VERTEX_POINT ( 'NONE', #225 ) ;
#210 = AXIS2_PLACEMENT_3D ( 'NONE', #15, #49, #167 ) ;
#211 = APPROVAL ( #320, 'UNSPECIFIED' ) ;
#212 = VECTOR ( 'NONE', #103, 1000.000000000000000 ) ;
#213 = DIRECTION ( 'NONE',  ( -1.000000000000000000, -0.0000000000000000000, 0.0000000000000000000 ) ) ;
#214 = AXIS2_PLACEMENT_3D ( 'NONE', #128, #161, #258 ) ;
#215 = CARTESIAN_POINT ( 'NONE',  ( 0.0000000000000000000, 57.20000000000000300, 0.0000000000000000000 ) ) ;
#216 = DIRECTION ( 'NONE',  ( 0.0000000000000000000, 1.835460370743176800E-016, -1.000000000000000000 ) ) ;
#217 = EDGE_LOOP ( 'NONE', ( #70, #312, #245 ) ) ;
#218 = EDGE_LOOP ( 'NONE', ( #236, #155, #201, #181 ) ) ;
#219 = EDGE_CURVE ( 'NONE', #296, #209, #127, .T. ) ;
#220 = ORIENTED_EDGE ( 'NONE', *, *, #57, .F. ) ;
#221 = CONICAL_SURFACE ( 'NONE', #126, 12.44999999999999900, 0.7853981633974489500 ) ;
#222 = ADVANCED_FACE ( 'NONE', ( #61 ), #321, .T. ) ;
#223 = ORIENTED_EDGE ( 'NONE', *, *, #73, .F. ) ;
#224 = DIRECTION ( 'NONE',  ( 0.0000000000000000000, -1.828774748770730500E-016, 1.000000000000000000 ) ) ;
#225 = CARTESIAN_POINT ( 'NONE',  ( 0.0000000000000000000, -1.500000000000001300, -1.224326374389397600E-014 ) ) ;
#226 = EDGE_LOOP ( 'NONE', ( #41, #303, #22, #232 ) ) ;
#227 = DATE_AND_TIME ( #299, #31 ) ;
#228 = CIRCLE ( 'NONE', #144, 12.69999999999999900 ) ;
#229 = CIRCLE ( 'NONE', #107, 55.70000000000000300 ) ;
#230 = AXIS2_PLACEMENT_3D ( 'NONE', #310, #277, #237 ) ;
#231 = DIRECTION ( 'NONE',  ( -1.224646799147353000E-016, 0.0000000000000000000, -1.000000000000000000 ) ) ;
#232 = ORIENTED_EDGE ( 'NONE', *, *, #256, .T. ) ;
#233 = SHAPE_DEFINITION_REPRESENTATION ( #78, #93 ) ;
#234 = DIRECTION ( 'NONE',  ( 1.000000000000000000, 2.249247266838588900E-032, -1.224646799147353200E-016 ) ) ;
#235 = CARTESIAN_POINT ( 'NONE',  ( 0.0000000000000000000, 98.50000000000000000, 0.0000000000000000000 ) ) ;
#236 = ORIENTED_EDGE ( 'NONE', *, *, #27, .F. ) ;
#237 = DIRECTION ( 'NONE',  ( 0.0000000000000000000, 1.741690236924509000E-016, -1.000000000000000000 ) ) ;
#238 = CC_DESIGN_PERSON_AND_ORGANIZATION_ASSIGNMENT ( #198, #275, ( #87 ) ) ;
#239 = PERSON_AND_ORGANIZATION ( #117, #46 ) ;
#240 = DIRECTION ( 'NONE',  ( 0.0000000000000000000, 1.878145495644181100E-016, -1.000000000000000000 ) ) ;
#241 = EDGE_CURVE ( 'NONE', #1, #209, #119, .T. ) ;
#242 = APPROVAL_ROLE ( '' ) ;
#243 = DIRECTION ( 'NONE',  ( 1.000000000000000000, 0.0000000000000000000, 0.0000000000000000000 ) ) ;
#244 = APPROVAL_ROLE ( '' ) ;
#245 = ORIENTED_EDGE ( 'NONE', *, *, #241, .F. ) ;
#246 = DIRECTION ( 'NONE',  ( 0.0000000000000000000, -1.828774748770730500E-016, 1.000000000000000000 ) ) ;
#247 = CARTESIAN_POINT ( 'NONE',  ( 0.0000000000000000000, 98.50000000000000000, 0.0000000000000000000 ) ) ;
#248 = PERSON_AND_ORGANIZATION ( #117, #46 ) ;
#249 = AXIS2_PLACEMENT_3D ( 'NONE', #247, #213, #82 ) ;
#250 = CLOSED_SHELL ( 'NONE', ( #282, #92, #222, #301, #170, #325, #45, #194, #116, #65 ) ) ;
#251 = CIRCLE ( 'NONE', #20, 12.69999999999999900 ) ;
#252 = LINE ( 'NONE', #77, #270 ) ;
#253 = DIRECTION ( 'NONE',  ( 1.224646799147353200E-016, 0.0000000000000000000, 1.000000000000000000 ) ) ;
#254 = CALENDAR_DATE ( 2016, 18, 5 ) ;
#255 = CARTESIAN_POINT ( 'NONE',  ( 0.0000000000000000000, -0.4719607748204107700, 1.888148010551266800E-016 ) ) ;
#256 = EDGE_CURVE ( 'NONE', #261, #137, #190, .T. ) ;
#257 = EDGE_LOOP ( 'NONE', ( #152, #298, #276, #51 ) ) ;
#258 = DIRECTION ( 'NONE',  ( 0.0000000000000000000, 1.828774748770730500E-016, -1.000000000000000000 ) ) ;
#259 = CARTESIAN_POINT ( 'NONE',  ( 0.0000000000000000000, 2.659231908177980900, 7.639052344015095600E-016 ) ) ;
#260 = VERTEX_POINT ( 'NONE', #113 ) ;
#261 = VERTEX_POINT ( 'NONE', #322 ) ;
#262 = CYLINDRICAL_SURFACE ( 'NONE', #154, 12.69999999999999900 ) ;
#263 = CARTESIAN_POINT ( 'NONE',  ( 1.555301434917138400E-015, 2.659231908177978700, 12.69999999999999900 ) ) ;
#264 = AXIS2_PLACEMENT_3D ( 'NONE', #109, #94, #224 ) ;
#265 = CARTESIAN_POINT ( 'NONE',  ( 0.0000000000000000000, -0.7219607748204114300, 12.45000000000001200 ) ) ;
#266 = DATE_AND_TIME ( #2, #63 ) ;
#267 = CARTESIAN_POINT ( 'NONE',  ( 0.0000000000000000000, -1.499999999999997600, -12.69999999999999900 ) ) ;
#268 = CARTESIAN_POINT ( 'NONE',  ( -1.524685264938455800E-015, -0.7219607748204091000, -12.45000000000002900 ) ) ;
#269 = ORIENTED_EDGE ( 'NONE', *, *, #291, .F. ) ;
#270 = VECTOR ( 'NONE', #79, 1000.000000000000000 ) ;
#271 = AXIS2_PLACEMENT_3D ( 'NONE', #56, #97, #288 ) ;
#272 = ORIENTED_EDGE ( 'NONE', *, *, #188, .F. ) ;
#273 = ORIENTED_EDGE ( 'NONE', *, *, #309, .F. ) ;
#274 = VECTOR ( 'NONE', #6, 1000.000000000000000 ) ;
#275 = PERSON_AND_ORGANIZATION_ROLE ( 'creator' ) ;
#276 = ORIENTED_EDGE ( 'NONE', *, *, #324, .F. ) ;
#277 = DIRECTION ( 'NONE',  ( -0.0000000000000000000, -1.000000000000000000, -1.836649773963074400E-016 ) ) ;
#278 = APPROVAL_DATE_TIME ( #9, #67 ) ;
#279 = CC_DESIGN_DATE_AND_TIME_ASSIGNMENT ( #266, #163, ( #87 ) ) ;
#280 = EDGE_CURVE ( 'NONE', #166, #88, #251, .T. ) ;
#281 = CONICAL_SURFACE ( 'NONE', #177, 12.69999999999999900, 0.7853981633975176700 ) ;
#282 = ADVANCED_FACE ( 'NONE', ( #179 ), #52, .F. ) ;
#283 = APPROVAL_PERSON_ORGANIZATION ( #16, #67, #60 ) ;
#284 = DIRECTION ( 'NONE',  ( -0.0000000000000000000, -1.000000000000000000, -1.836649773963074400E-016 ) ) ;
#285 = VECTOR ( 'NONE', #150, 1000.000000000000000 ) ;
#286 = DIRECTION ( 'NONE',  ( 0.0000000000000000000, 1.707404996040164500E-016, -1.000000000000000000 ) ) ;
#287 = DIRECTION ( 'NONE',  ( -0.0000000000000000000, -1.000000000000000000, -1.836649773963074400E-016 ) ) ;
#288 = DIRECTION ( 'NONE',  ( 0.0000000000000000000, 1.741690236924509000E-016, -1.000000000000000000 ) ) ;
#289 = ORIENTED_EDGE ( 'NONE', *, *, #324, .T. ) ;
#290 = ORIENTED_EDGE ( 'NONE', *, *, #12, .F. ) ;
#291 = EDGE_CURVE ( 'NONE', #18, #164, #14, .T. ) ;
#292 = DIRECTION ( 'NONE',  ( 0.0000000000000000000, 1.707404996040164500E-016, -1.000000000000000000 ) ) ;
#293 = LINE ( 'NONE', #139, #90 ) ;
#294 = APPLICATION_PROTOCOL_DEFINITION ( 'international standard', 'config_control_design', 1994, #35 ) ;
#295 = SECURITY_CLASSIFICATION_LEVEL ( 'unclassified' ) ;
#296 = VERTEX_POINT ( 'NONE', #268 ) ;
#297 = ORIENTED_EDGE ( 'NONE', *, *, #57, .T. ) ;
#298 = ORIENTED_EDGE ( 'NONE', *, *, #27, .T. ) ;
#299 = CALENDAR_DATE ( 2016, 18, 5 ) ;
#300 = SPHERICAL_SURFACE ( 'NONE', #162, 55.70000000000000300 ) ;
#301 = ADVANCED_FACE ( 'NONE', ( #311 ), #304, .T. ) ;
#302 = CC_DESIGN_APPROVAL ( #67, ( #87 ) ) ;
#303 = ORIENTED_EDGE ( 'NONE', *, *, #199, .F. ) ;
#304 = CONICAL_SURFACE ( 'NONE', #264, 12.44999999999999900, 0.7853981633974489500 ) ;
#305 = DIRECTION ( 'NONE',  ( 0.0000000000000000000, 0.0000000000000000000, 1.000000000000000000 ) ) ;
#306 = ORIENTED_EDGE ( 'NONE', *, *, #168, .F. ) ;
#307 = DATE_AND_TIME ( #42, #104 ) ;
#308 = PRODUCT_DEFINITION_FORMATION_WITH_SPECIFIED_SOURCE ( 'ANY', '', #327, .NOT_KNOWN. ) ;
#309 = EDGE_CURVE ( 'NONE', #18, #260, #100, .T. ) ;
#310 = CARTESIAN_POINT ( 'NONE',  ( 0.0000000000000000000, 2.909231908177972500, 8.098214787505848800E-016 ) ) ;
#311 = FACE_OUTER_BOUND ( 'NONE', #118, .T. ) ;
#312 = ORIENTED_EDGE ( 'NONE', *, *, #219, .T. ) ;
#313 = AXIS2_PLACEMENT_3D ( 'NONE', #50, #208, #207 ) ;
#314 = CARTESIAN_POINT ( 'NONE',  ( 0.0000000000000000000, 2.659231908177980900, 7.639052344015095600E-016 ) ) ;
#315 = ORIENTED_EDGE ( 'NONE', *, *, #219, .F. ) ;
#316 = PERSON_AND_ORGANIZATION ( #117, #46 ) ;
#317 =( LENGTH_UNIT ( ) NAMED_UNIT ( * ) SI_UNIT ( .MILLI., .METRE. ) );
#318 = PRODUCT_RELATED_PRODUCT_CATEGORY ( 'detail', '', ( #327 ) ) ;
#319 = DIRECTION ( 'NONE',  ( 0.0000000000000000000, 1.835460370743176800E-016, -1.000000000000000000 ) ) ;
#320 = APPROVAL_STATUS ( 'not_yet_approved' ) ;
#321 = CYLINDRICAL_SURFACE ( 'NONE', #313, 12.69999999999999900 ) ;
#322 = CARTESIAN_POINT ( 'NONE',  ( 0.0000000000000000000, -0.4719607748204131000, 12.69999999999999900 ) ) ;
#323 = LOCAL_TIME ( 15, 51, 12.00000000000000000, #54 ) ;
#324 = EDGE_CURVE ( 'NONE', #88, #166, #112, .T. ) ;
#325 = ADVANCED_FACE ( 'NONE', ( #172 ), #37, .T. ) ;
#326 = CIRCLE ( 'NONE', #184, 12.44999999999999900 ) ;
#327 = PRODUCT ( '4873-E0W', '4873-E0W', '', ( #108 ) ) ;
ENDSEC;
END-ISO-10303-21;
