ISO-10303-21;
HEADER;
FILE_DESCRIPTION (( 'STEP AP203' ),
    '1' );
FILE_NAME ('Web Model 34429_13304.step',
    '2020-11-03T22:11:16',
    ( '' ),
    ( '' ),
    'SwSTEP 2.0',
    'SolidWorks 2018',
    '' );
FILE_SCHEMA (( 'CONFIG_CONTROL_DESIGN' ));
ENDSEC;

DATA;
#1 = EDGE_CURVE ( 'NONE', #82, #47, #7, .T. ) ;
#2 = APPROVAL ( #83, 'UNSPECIFIED' ) ;
#3 = DATE_TIME_ROLE ( 'creation_date' ) ;
#4 = PERSON_AND_ORGANIZATION_ROLE ( 'creator' ) ;
#5 = APPLICATION_PROTOCOL_DEFINITION ( 'international standard', 'config_control_design', 1994, #133 ) ;
#6 = VERTEX_POINT ( 'NONE', #103 ) ;
#7 = LINE ( 'NONE', #10, #48 ) ;
#8 = DATE_AND_TIME ( #67, #148 ) ;
#9 = CARTESIAN_POINT ( 'NONE',  ( 0.0000000000000000000, 0.0000000000000000000, 3.000000000000000000 ) ) ;
#10 = CARTESIAN_POINT ( 'NONE',  ( -25.00000000000000000, 0.0000000000000000000, 3.000000000000000000 ) ) ;
#11 = AXIS2_PLACEMENT_3D ( 'NONE', #137, #149, #174 ) ;
#12 = ORIENTED_EDGE ( 'NONE', *, *, #23, .F. ) ;
#13 = LINE ( 'NONE', #123, #113 ) ;
#14 = CALENDAR_DATE ( 2020, 3, 11 ) ;
#15 = DESIGN_CONTEXT ( 'detailed design', #133, 'design' ) ;
#16 = PERSON_AND_ORGANIZATION_ROLE ( 'design_owner' ) ;
#17 = ORIENTED_EDGE ( 'NONE', *, *, #131, .T. ) ;
#18 =( GEOMETRIC_REPRESENTATION_CONTEXT ( 3 ) GLOBAL_UNCERTAINTY_ASSIGNED_CONTEXT ( ( #141 ) ) GLOBAL_UNIT_ASSIGNED_CONTEXT ( ( #130, #29, #40 ) ) REPRESENTATION_CONTEXT ( 'NONE', 'WORKASPACE' ) );
#19 = APPROVAL_DATE_TIME ( #126, #35 ) ;
#20 = DATE_AND_TIME ( #97, #85 ) ;
#21 = DIRECTION ( 'NONE',  ( 0.0000000000000000000, 0.0000000000000000000, 1.000000000000000000 ) ) ;
#22 = DIRECTION ( 'NONE',  ( 1.000000000000000000, 0.0000000000000000000, -0.0000000000000000000 ) ) ;
#23 = EDGE_CURVE ( 'NONE', #53, #6, #13, .T. ) ;
#24 = LOCAL_TIME ( 17, 11, 16.00000000000000000, #169 ) ;
#25 = MANIFOLD_SOLID_BREP ( 'Boss-Extrude1', #127 ) ;
#26 = AXIS2_PLACEMENT_3D ( 'NONE', #60, #21, #22 ) ;
#27 = EDGE_CURVE ( 'NONE', #47, #6, #117, .T. ) ;
#28 = COORDINATED_UNIVERSAL_TIME_OFFSET ( 5, 0, .BEHIND. ) ;
#29 =( NAMED_UNIT ( * ) PLANE_ANGLE_UNIT ( ) SI_UNIT ( $, .RADIAN. ) );
#30 = AXIS2_PLACEMENT_3D ( 'NONE', #98, #128, #95 ) ;
#31 = EDGE_CURVE ( 'NONE', #53, #82, #78, .T. ) ;
#32 = CIRCLE ( 'NONE', #30, 25.00000000000000000 ) ;
#33 = COORDINATED_UNIVERSAL_TIME_OFFSET ( 5, 0, .BEHIND. ) ;
#34 = PLANE ( 'NONE',  #70 ) ;
#35 = APPROVAL ( #107, 'UNSPECIFIED' ) ;
#36 = ORIENTED_EDGE ( 'NONE', *, *, #31, .T. ) ;
#37 = FACE_OUTER_BOUND ( 'NONE', #41, .T. ) ;
#38 = LOCAL_TIME ( 17, 11, 16.00000000000000000, #28 ) ;
#39 = COORDINATED_UNIVERSAL_TIME_OFFSET ( 5, 0, .BEHIND. ) ;
#40 =( NAMED_UNIT ( * ) SI_UNIT ( $, .STERADIAN. ) SOLID_ANGLE_UNIT ( ) );
#41 = EDGE_LOOP ( 'NONE', ( #12, #164, #100, #87 ) ) ;
#42 = DATE_TIME_ROLE ( 'classification_date' ) ;
#43 = APPROVAL_ROLE ( '' ) ;
#44 = CYLINDRICAL_SURFACE ( 'NONE', #135, 25.00000000000000000 ) ;
#45 = COORDINATED_UNIVERSAL_TIME_OFFSET ( 5, 0, .BEHIND. ) ;
#46 = CC_DESIGN_APPROVAL ( #35, ( #76 ) ) ;
#47 = VERTEX_POINT ( 'NONE', #90 ) ;
#48 = VECTOR ( 'NONE', #75, 1000.000000000000000 ) ;
#49 = DIRECTION ( 'NONE',  ( 0.0000000000000000000, 0.0000000000000000000, 1.000000000000000000 ) ) ;
#50 = DIRECTION ( 'NONE',  ( 0.0000000000000000000, 0.0000000000000000000, 1.000000000000000000 ) ) ;
#51 = CARTESIAN_POINT ( 'NONE',  ( 0.0000000000000000000, 0.0000000000000000000, 3.000000000000000000 ) ) ;
#52 = AXIS2_PLACEMENT_3D ( 'NONE', #84, #157, #64 ) ;
#53 = VERTEX_POINT ( 'NONE', #147 ) ;
#54 = PERSON_AND_ORGANIZATION ( #112, #105 ) ;
#55 = CALENDAR_DATE ( 2020, 3, 11 ) ;
#56 = APPLICATION_PROTOCOL_DEFINITION ( 'international standard', 'config_control_design', 1994, #143 ) ;
#57 = PRODUCT_DEFINITION_FORMATION_WITH_SPECIFIED_SOURCE ( 'ANY', '', #93, .NOT_KNOWN. ) ;
#58 = AXIS2_PLACEMENT_3D ( 'NONE', #51, #165, #121 ) ;
#59 = DIRECTION ( 'NONE',  ( 1.000000000000000000, 0.0000000000000000000, -0.0000000000000000000 ) ) ;
#60 = CARTESIAN_POINT ( 'NONE',  ( 0.0000000000000000000, 0.0000000000000000000, 0.0000000000000000000 ) ) ;
#61 = CARTESIAN_POINT ( 'NONE',  ( -25.00000000000000000, 0.0000000000000000000, 3.000000000000000000 ) ) ;
#62 = CC_DESIGN_APPROVAL ( #115, ( #57 ) ) ;
#63 = APPROVAL_ROLE ( '' ) ;
#64 = DIRECTION ( 'NONE',  ( 1.000000000000000000, 0.0000000000000000000, 0.0000000000000000000 ) ) ;
#65 = MECHANICAL_CONTEXT ( 'NONE', #143, 'mechanical' ) ;
#66 = CIRCLE ( 'NONE', #155, 25.00000000000000000 ) ;
#67 = CALENDAR_DATE ( 2020, 3, 11 ) ;
#68 = SHAPE_DEFINITION_REPRESENTATION ( #142, #144 ) ;
#69 = ADVANCED_FACE ( 'NONE', ( #37 ), #161, .T. ) ;
#70 = AXIS2_PLACEMENT_3D ( 'NONE', #138, #50, #59 ) ;
#71 = FACE_OUTER_BOUND ( 'NONE', #129, .T. ) ;
#72 = DIRECTION ( 'NONE',  ( 1.000000000000000000, 0.0000000000000000000, 0.0000000000000000000 ) ) ;
#73 = PERSON_AND_ORGANIZATION ( #112, #105 ) ;
#74 = CARTESIAN_POINT ( 'NONE',  ( 0.0000000000000000000, 0.0000000000000000000, 3.000000000000000000 ) ) ;
#75 = DIRECTION ( 'NONE',  ( -0.0000000000000000000, -0.0000000000000000000, -1.000000000000000000 ) ) ;
#76 = PRODUCT_DEFINITION ( 'UNKNOWN', '', #57, #15 ) ;
#77 = ORIENTED_EDGE ( 'NONE', *, *, #171, .F. ) ;
#78 = CIRCLE ( 'NONE', #108, 25.00000000000000000 ) ;
#79 = APPROVAL_PERSON_ORGANIZATION ( #162, #115, #63 ) ;
#80 = ORIENTED_EDGE ( 'NONE', *, *, #31, .F. ) ;
#81 = SECURITY_CLASSIFICATION ( '', '', #110 ) ;
#82 = VERTEX_POINT ( 'NONE', #61 ) ;
#83 = APPROVAL_STATUS ( 'not_yet_approved' ) ;
#84 = CARTESIAN_POINT ( 'NONE',  ( 0.0000000000000000000, 0.0000000000000000000, 0.0000000000000000000 ) ) ;
#85 = LOCAL_TIME ( 17, 11, 16.00000000000000000, #33 ) ;
#86 = CC_DESIGN_PERSON_AND_ORGANIZATION_ASSIGNMENT ( #54, #170, ( #57 ) ) ;
#87 = ORIENTED_EDGE ( 'NONE', *, *, #27, .T. ) ;
#88 = APPROVAL_PERSON_ORGANIZATION ( #73, #35, #43 ) ;
#89 = LOCAL_TIME ( 17, 11, 16.00000000000000000, #39 ) ;
#90 = CARTESIAN_POINT ( 'NONE',  ( -25.00000000000000000, 0.0000000000000000000, 0.0000000000000000000 ) ) ;
#91 = APPROVAL_DATE_TIME ( #8, #115 ) ;
#92 = CC_DESIGN_DATE_AND_TIME_ASSIGNMENT ( #136, #3, ( #76 ) ) ;
#93 = PRODUCT ( 'Web Model 34429_13304', 'Web Model 34429_13304', '', ( #65 ) ) ;
#94 = PERSON_AND_ORGANIZATION_ROLE ( 'classification_officer' ) ;
#95 = DIRECTION ( 'NONE',  ( 1.000000000000000000, 0.0000000000000000000, 0.0000000000000000000 ) ) ;
#96 = PERSON_AND_ORGANIZATION ( #112, #105 ) ;
#97 = CALENDAR_DATE ( 2020, 3, 11 ) ;
#98 = CARTESIAN_POINT ( 'NONE',  ( 0.0000000000000000000, 0.0000000000000000000, 0.0000000000000000000 ) ) ;
#99 = ADVANCED_FACE ( 'NONE', ( #71 ), #150, .F. ) ;
#100 = ORIENTED_EDGE ( 'NONE', *, *, #1, .T. ) ;
#101 = DIRECTION ( 'NONE',  ( -0.0000000000000000000, -0.0000000000000000000, -1.000000000000000000 ) ) ;
#102 = APPROVAL_DATE_TIME ( #114, #2 ) ;
#103 = CARTESIAN_POINT ( 'NONE',  ( 25.00000000000000000, 3.061616997868383043E-15, 0.0000000000000000000 ) ) ;
#104 = CC_DESIGN_PERSON_AND_ORGANIZATION_ASSIGNMENT ( #96, #16, ( #93 ) ) ;
#105 = ORGANIZATION ( 'UNSPECIFIED', 'UNSPECIFIED', '' ) ;
#106 = APPROVAL_PERSON_ORGANIZATION ( #119, #2, #160 ) ;
#107 = APPROVAL_STATUS ( 'not_yet_approved' ) ;
#108 = AXIS2_PLACEMENT_3D ( 'NONE', #175, #49, #72 ) ;
#109 = ADVANCED_FACE ( 'NONE', ( #146 ), #34, .T. ) ;
#110 = SECURITY_CLASSIFICATION_LEVEL ( 'unclassified' ) ;
#111 = ORIENTED_EDGE ( 'NONE', *, *, #1, .F. ) ;
#112 = PERSON ( 'UNSPECIFIED', 'UNSPECIFIED', 'UNSPECIFIED', ('UNSPECIFIED'), ('UNSPECIFIED'), ('UNSPECIFIED') ) ;
#113 = VECTOR ( 'NONE', #166, 1000.000000000000000 ) ;
#114 = DATE_AND_TIME ( #55, #89 ) ;
#115 = APPROVAL ( #172, 'UNSPECIFIED' ) ;
#116 = ORIENTED_EDGE ( 'NONE', *, *, #171, .T. ) ;
#117 = CIRCLE ( 'NONE', #11, 25.00000000000000000 ) ;
#118 = PERSON_AND_ORGANIZATION ( #112, #105 ) ;
#119 = PERSON_AND_ORGANIZATION ( #112, #105 ) ;
#120 = DIRECTION ( 'NONE',  ( -1.000000000000000000, 0.0000000000000000000, 0.0000000000000000000 ) ) ;
#121 = DIRECTION ( 'NONE',  ( -1.000000000000000000, 0.0000000000000000000, 0.0000000000000000000 ) ) ;
#122 = DIRECTION ( 'NONE',  ( 1.000000000000000000, 0.0000000000000000000, 0.0000000000000000000 ) ) ;
#123 = CARTESIAN_POINT ( 'NONE',  ( 25.00000000000000000, 3.061616997868383043E-15, 3.000000000000000000 ) ) ;
#124 = ORIENTED_EDGE ( 'NONE', *, *, #23, .T. ) ;
#125 = CC_DESIGN_APPROVAL ( #2, ( #81 ) ) ;
#126 = DATE_AND_TIME ( #140, #38 ) ;
#127 = CLOSED_SHELL ( 'NONE', ( #163, #69, #109, #99 ) ) ;
#128 = DIRECTION ( 'NONE',  ( 0.0000000000000000000, 0.0000000000000000000, 1.000000000000000000 ) ) ;
#129 = EDGE_LOOP ( 'NONE', ( #168, #77 ) ) ;
#130 =( LENGTH_UNIT ( ) NAMED_UNIT ( * ) SI_UNIT ( .MILLI., .METRE. ) );
#131 = EDGE_CURVE ( 'NONE', #82, #53, #66, .T. ) ;
#132 = PERSON_AND_ORGANIZATION ( #112, #105 ) ;
#133 = APPLICATION_CONTEXT ( 'configuration controlled 3d designs of mechanical parts and assemblies' ) ;
#134 = PRODUCT_RELATED_PRODUCT_CATEGORY ( 'detail', '', ( #93 ) ) ;
#135 = AXIS2_PLACEMENT_3D ( 'NONE', #74, #101, #120 ) ;
#136 = DATE_AND_TIME ( #14, #24 ) ;
#137 = CARTESIAN_POINT ( 'NONE',  ( 0.0000000000000000000, 0.0000000000000000000, 0.0000000000000000000 ) ) ;
#138 = CARTESIAN_POINT ( 'NONE',  ( 0.0000000000000000000, 0.0000000000000000000, 3.000000000000000000 ) ) ;
#139 = CC_DESIGN_PERSON_AND_ORGANIZATION_ASSIGNMENT ( #132, #4, ( #57 ) ) ;
#140 = CALENDAR_DATE ( 2020, 3, 11 ) ;
#141 = UNCERTAINTY_MEASURE_WITH_UNIT (LENGTH_MEASURE( 1.000000000000000082E-05 ), #130, 'distance_accuracy_value', 'NONE');
#142 = PRODUCT_DEFINITION_SHAPE ( 'NONE', 'NONE',  #76 ) ;
#143 = APPLICATION_CONTEXT ( 'configuration controlled 3d designs of mechanical parts and assemblies' ) ;
#144 = ADVANCED_BREP_SHAPE_REPRESENTATION ( 'Web Model 34429_13304', ( #25, #52 ), #18 ) ;
#145 = CC_DESIGN_PERSON_AND_ORGANIZATION_ASSIGNMENT ( #154, #94, ( #81 ) ) ;
#146 = FACE_OUTER_BOUND ( 'NONE', #158, .T. ) ;
#147 = CARTESIAN_POINT ( 'NONE',  ( 25.00000000000000000, 3.061616997868383043E-15, 3.000000000000000000 ) ) ;
#148 = LOCAL_TIME ( 17, 11, 16.00000000000000000, #45 ) ;
#149 = DIRECTION ( 'NONE',  ( 0.0000000000000000000, 0.0000000000000000000, 1.000000000000000000 ) ) ;
#150 = PLANE ( 'NONE',  #26 ) ;
#151 = EDGE_LOOP ( 'NONE', ( #80, #124, #116, #111 ) ) ;
#152 = FACE_OUTER_BOUND ( 'NONE', #151, .T. ) ;
#153 = DIRECTION ( 'NONE',  ( 0.0000000000000000000, 0.0000000000000000000, 1.000000000000000000 ) ) ;
#154 = PERSON_AND_ORGANIZATION ( #112, #105 ) ;
#155 = AXIS2_PLACEMENT_3D ( 'NONE', #9, #153, #122 ) ;
#156 = PERSON_AND_ORGANIZATION_ROLE ( 'creator' ) ;
#157 = DIRECTION ( 'NONE',  ( 0.0000000000000000000, 0.0000000000000000000, 1.000000000000000000 ) ) ;
#158 = EDGE_LOOP ( 'NONE', ( #17, #36 ) ) ;
#159 = CC_DESIGN_SECURITY_CLASSIFICATION ( #81, ( #57 ) ) ;
#160 = APPROVAL_ROLE ( '' ) ;
#161 = CYLINDRICAL_SURFACE ( 'NONE', #58, 25.00000000000000000 ) ;
#162 = PERSON_AND_ORGANIZATION ( #112, #105 ) ;
#163 = ADVANCED_FACE ( 'NONE', ( #152 ), #44, .T. ) ;
#164 = ORIENTED_EDGE ( 'NONE', *, *, #131, .F. ) ;
#165 = DIRECTION ( 'NONE',  ( -0.0000000000000000000, -0.0000000000000000000, -1.000000000000000000 ) ) ;
#166 = DIRECTION ( 'NONE',  ( -0.0000000000000000000, -0.0000000000000000000, -1.000000000000000000 ) ) ;
#167 = CC_DESIGN_DATE_AND_TIME_ASSIGNMENT ( #20, #42, ( #81 ) ) ;
#168 = ORIENTED_EDGE ( 'NONE', *, *, #27, .F. ) ;
#169 = COORDINATED_UNIVERSAL_TIME_OFFSET ( 5, 0, .BEHIND. ) ;
#170 = PERSON_AND_ORGANIZATION_ROLE ( 'design_supplier' ) ;
#171 = EDGE_CURVE ( 'NONE', #6, #47, #32, .T. ) ;
#172 = APPROVAL_STATUS ( 'not_yet_approved' ) ;
#173 = CC_DESIGN_PERSON_AND_ORGANIZATION_ASSIGNMENT ( #118, #156, ( #76 ) ) ;
#174 = DIRECTION ( 'NONE',  ( 1.000000000000000000, 0.0000000000000000000, 0.0000000000000000000 ) ) ;
#175 = CARTESIAN_POINT ( 'NONE',  ( 0.0000000000000000000, 0.0000000000000000000, 3.000000000000000000 ) ) ;
ENDSEC;
END-ISO-10303-21;
